Puddle Of Mudd - Drift And Die Chords & Tabs

 

Drift And Die Chords & Tabs

Puddle Of Mudd Chords & Tabs

Version: 1 Type: Chords 0 ratings
1 star 2 stars 3 stars 4 stars 5 stars
comments

Drift And Die Chords

Artist: Puddle of Mudd

Song: Drift and Die
Transcribed by: MonoxideChild
email me at reefer__69@hotmail.com

i know this is 100% correct because i watched the music video and 
no one else had it so here it goes: (i only did the main riff that
is repeated all throughout the song)

the chords are: Dm - x x 0 2 3 1    D??= x x 0 2 3 0
                c??- x 3 2 0 3 3      G- 3 2 0 0 3 3
[ Tab from: http://www.guitartabs.cc/tabs/p/puddle_of_mudd/drift_and_die_crd.html ]
E-1--1-1-1--0--0-0-0-0-0-0-0--1--1-1-1--0--0-0-0-0-0-0-0-
B-3--3-3-3--3--3-3-3-3-3-3-3--3--3-3-3--3--3-3-3-3-3-3-3- 
G-2--2-2-2--2--2-2-2-2-2-2-2--2--2-2-2--2--2-2-2-2-2-2-2-
D-0--0-0-0--0--0-0-0-0-0-0-0--0--0-0-0--0--0-0-0-0-0-0-0- 
A--------------------------------------------------------
E--------------------------------------------------------


E-3--3-3-3--3--3-3-3-3-3-3-3-3--3--3-3-3--3--3-3-3-3-3-3-3-3--
B-3--3-3-3--3--3-3-3-3-3-3-3-3--3--3-3-3--3--3-3-3-3-3-3-3-3--
G-0--0-0-0--0--0-0-0-0-0-0-0-0--0--0-0-0--0--0-0-0-0-0-0-0-0--
D-2--2-2-2--0--0-0-0-0-0-0-0-0--2--2-2-2--0--0-0-0-0-0-0-0-0--
A-3--3-3-3--2--2-2-2-2-2-2-2-2--3--3-3-3--2--2-2-2-2-2-2-2-2--
E-----------3--3-3-3-3-3-3-3-3------------3--3-3-3-3-3-3-3-3--





Comments