Puddle Of Mudd - Control Chords & Tabs

 

Control Chords & Tabs

Puddle Of Mudd Chords & Tabs

Version: 7 Type: Tab 0 ratings
1 star 2 stars 3 stars 4 stars 5 stars
comments

Control Tab

TUNING Db Ab Db Gb Bb Eb (Drop D then tune all strings down a half step)

   Hi this is Bill Dunn again, instead of making a big deal about the titles
stuff im just gonna say that this is how the intro goes.

[ Tab from: http://www.guitartabs.cc/tabs/p/puddle_of_mudd/control_tab_ver_7.html ]
  Gtr I
  S S S S S S S S +S   S  S  S  S  E   S   S S S S S S S S +S  S S S S E   S
|----------------------------------------|-----------------------------------|
|----------------------------------------|-----------------------------------|
|-5h7-7-7-7p5-2S9-(9)h10-10-10-10h12---7-|-7h9-9-9-9p7-7-5-(5)-5-5-5-5-7---7-|
|-5h7-7-7-7p5-2S9-(9)h10-10-10-10h12---7-|-7h9-9-9-9p7-7-5-(5)-5-5-5-5-7---7-|
|----------------------------------------|-----------------------------------|
|----------------------------------------|-----------------------------------|
|
| Gtr II
| E.    S E   S S +S   S  S  S  S  S S S   E.    S E   S S +S  S S S S S S S
|----------------------------------------|-----------------------------------|
|----------------------------------------|-----------------------------------|
|-------------2--------------------------|-5-----5-5-------------------------|
|-0-----0-0---2-3-(3)--3--3--3--3p=2-2-0-|-5-----5-5---0-5-(5)-5-5-5-5p3-3h5-|
|-0-----0-0---0-3-(3)--3--3--3--3p=2-2-0-|-3-----3-3---0-5-(5)-5-5-5-5p3-3h5-|
|-0-----0-0-----3-(3)--3--3--3--3p=2-2-0-|-------------0-5-(5)-5-5-5-5p3-3h5-|
(Main Tune)


  S S S S S S S S +S   S  S  S  +S  S E      S   S  S  S  E  S  S  +S   S  S  S  e   E
|-----------------------------------------|-----------------------------------------------|
|-----------------------------------------|-----------------------------------------------|
|-5h7-7-7-7p5-2S9-(9)-10-10-12-(12)10-9---|-12--12-12-12-12-12-10-(10)-10-10-10-10--------|
|-5h7-7-7-7p5-2S9-(9)-10-10-12-(12)10-9---|-12--12-12-12-12-12-10-(10)-10-10-10-10--------|
|-----------------------------------------|-----------------------------------------------|
|-----------------------------------------|-----------------------------------------------|
|
| E.    S E   S S +S   S  S  S   S  S S S    E.        S  E  S  S  +S   S  S  S  e E
|-----------------------------------------|-----------------------------------------------|
|-----------------------------------------|-----------------------------------------------|
|-------------2---------------------------|--5---------5--5-------------------------------|
|-0-----0-0---2-3-(3)--3--3--3---3p=2-2-0-|--5---------5--5--0--5--(5)--5--5--5--5--------|
|-0-----0-0---0-3-(3)--3--3--3---3p=2-2-0-|--3---------3--3--0--5--(5)--5--5--5--5--------|
|-0-----0-0-----3-(3)--3--3--3---3p=2-2-0-|------------------0--5--(5)--5--5--5--5--------|

That'll be all
Comments