Puddle Of Mudd - Control Chords & Tabs

 

Control Chords & Tabs

Puddle Of Mudd Chords & Tabs

Version: 2 Type: Tab 2 ratings
1 star 2 stars 3 stars 4 stars 5 stars
comments

Control Tab

   
Tabbed by marcus lubbock
Control By puddle of mudd

Intro Part1
Guitar 1
e------------------------------------------------
b------------------------------------------------
g-----------------------5-5-5--------------------
D-0-0-0-0-3-3-3-3-2-2-0-5-5-5-5-5-5-5-5-5-3-3-3--
A-0-0-0-0-3-3-3-3-2-2-0-3-3-3-7-5-5-5-5-5-3-3-3--
D-0-0-0-0-3-3-3-3-2-2-0-------5-5-5-5-5-5-3-3-3--

Intro part2
Guitar 2
e----------------------------------------------
b----------------------------------------------
g-5-7-7-7-7-5---9-10-10-10-10-12---------------
D-x-x-x-x-x-x---x--x--x--x--x-xx-0-0-----------
A-3-5-5-5-5-3-0-7--8--8--8--8-10-0-0-----------
D--------------------------------0-0-----------

Intro part2
Guitar 2
e--------------------------------------
b--------------------------------------
g-7-9-9-9-9-7-5-5---5-5-7-7-7----------
D-x-x-x-x-x-x-x-x---x-x-x-x-x----------
A-5-7-7-7-7-5-3-3---3-3-5-5-5----------
D--------------------------------------

Intro part 2
Guitar 2
e---------------------------------------
b---------------------------------------
g-5-7-7-7-7-5---9-10-12-10-9------------
D-x-x-x-x-x-x---x--x--x--x-x------------
A-3-5-5-5-5-3-0-7--8-10--8-7------------
D---------------------------------------

Intro part 2
Guitar 2
e---------------------------------------------
b---------------------------------------------
g-12-12-12-12-12-12-10-10-10-10-10------------
D--x--x--x--x--x--x--x--x--x--x--x------------
A-10-10-10-10-10-10--8--8--8--8--8------------
D---------------------------------------------
Verse Let single notes ring
e------------------------------
b------------------------------
g-7------7-----7---7-9---------
D------------------------------
A-5---5-----5----5-5-7---------
D------------------------------
Verse
e-------------------------------------
b------------5----6-5-----------------
g-7--5--4-------------7-9---9-----9---
D----------7----7---------7---7-7-----
A-5--3--2-----------------------------
D-------------------------------------
Verse
e-----------------------------------------------------
b-----------------------------------------------------
g-10-10-10-10-10-10-10-10-12-12-12-12-12-12-12--------
D--x--x--x--x--x--x--x--x--x--x--x--x--x--x--x--------
A--8--8--8--8--8--8--8--8-10-10-10-10-10-10-10--------
D-----------------------------------------------------

Chours
Guitar 1
e------------------------------------------------
b------------------------------------------------
g-----------------------5-5-5--------------------
D-0-0-0-0-3-3-3-3-2-2-0-5-5-5-5-5-5-5-5-5-3-3-3--
A-0-0-0-0-3-3-3-3-2-2-0-3-3-3-7-5-5-5-5-5-3-3-3--
D-0-0-0-0-3-3-3-3-2-2-0-------5-5-5-5-5-5-3-3-3--

Chours Part2
Guitar 2
e----------------------------------------------
b----------------------------------------------
g-5-7-7-7-7-5---9-10-10-10-10-12---------------
D-x-x-x-x-x-x---x--x--x--x--x-xx-0-0-----------
A-3-5-5-5-5-3-0-7--8--8--8--8-10-0-0-----------
D--------------------------------0-0-----------

Chours part2
Guitar 2
e--------------------------------------
b--------------------------------------
g-7-9-9-9-9-7-5-5---5-5-7-7-7----------
D-x-x-x-x-x-x-x-x---x-x-x-x-x----------
A-5-7-7-7-7-5-3-3---3-3-5-5-5----------
D--------------------------------------

Chours part 2
Guitar 2
e---------------------------------------
b---------------------------------------
g-5-7-7-7-7-5---9-10-12-10-9------------
D-x-x-x-x-x-x---x--x--x--x-x------------
A-3-5-5-5-5-3-0-7--8-10--8-7------------
D---------------------------------------

Chours part 2
Guitar 2
e---------------------------------------------
b---------------------------------------------
g-12-12-12-12-12-12-10-10-10-10-10------------
D--x--x--x--x--x--x--x--x--x--x--x------------
A-10-10-10-10-10-10--8--8--8--8--8------------
D---------------------------------------------
Verse Let single notes ring
e------------------------------
b------------------------------
g-7------7-----7---7-9---------
D------------------------------
A-5---5-----5----5-5-7---------
D------------------------------
Verse
e-------------------------------------
b------------5----6-5-----------------
g-7--5--4-------------7-9---9-----9---
D----------7----7---------7---7-7-----
A-5--3--2-----------------------------
D-------------------------------------
Verse
e-----------------------------------------------------
b-----------------------------------------------------
g-10-10-10-10-10-10-10-10-12-12-12-12-12-12-12--------
D--x--x--x--x--x--x--x--x--x--x--x--x--x--x--x--------
A--8--8--8--8--8--8--8--8-10-10-10-10-10-10-10--------
D-----------------------------------------------------

Chours
Guitar 1
e------------------------------------------------
b------------------------------------------------
g-----------------------5-5-5--------------------
D-0-0-0-0-3-3-3-3-2-2-0-5-5-5-5-5-5-5-5-5-3-3-3--
A-0-0-0-0-3-3-3-3-2-2-0-3-3-3-7-5-5-5-5-5-3-3-3--
D-0-0-0-0-3-3-3-3-2-2-0-------5-5-5-5-5-5-3-3-3--

Chours Part2
Guitar 2
e----------------------------------------------
b----------------------------------------------
g-5-7-7-7-7-5---9-10-10-10-10-12---------------
D-x-x-x-x-x-x---x--x--x--x--x-xx-0-0-----------
A-3-5-5-5-5-3-0-7--8--8--8--8-10-0-0-----------
D--------------------------------0-0-----------
[ Tab from: http://www.guitartabs.cc/tabs/p/puddle_of_mudd/control_tab_ver_2.html ]
Chours part2
Guitar 2
e--------------------------------------
b--------------------------------------
g-7-9-9-9-9-7-5-5---5-5-7-7-7----------
D-x-x-x-x-x-x-x-x---x-x-x-x-x----------
A-5-7-7-7-7-5-3-3---3-3-5-5-5----------
D--------------------------------------

Chours part 2
Guitar 2
e---------------------------------------
b---------------------------------------
g-5-7-7-7-7-5---9-10-12-10-9------------
D-x-x-x-x-x-x---x--x--x--x-x------------
A-3-5-5-5-5-3-0-7--8-10--8-7------------
D---------------------------------------

Chours part 2
Guitar 2
e---------------------------------------------
b---------------------------------------------
g-12-12-12-12-12-12-10-10-10-10-10------------
D--x--x--x--x--x--x--x--x--x--x--x------------
A-10-10-10-10-10-10--8--8--8--8--8------------
D---------------------------------------------

Bridge 
e-------------------------
b-------------------------
g----7-7/14-14/19---------
D-0-----------------------
A-0--5-5/12-12/17---------
D-0-----------------------

Bridge x4
e----------------------------------------
b----------------------------------------
g----------------------------------------
D-5-7-7-7-7-7-5-7-7-7-7-7-10-10-10-0-----
A-3-5-5-5-5-5-3-5-5-5-5-5--8--8--8-0-----
D----------------------------------------

Bridge
e-------------------------------------------------
b-------------------------------------------------
g-5-7--5-7--5-7--5-7--12*-12*-12*-12*-12*-12*-12*-
D-5-7--5-7--5-7--5-7------------------------------
A-3-5--3-5--3-5--3-5------------------------------
D-------------------------------------------------

Bridge x3
e-----------------------------------
b-----------------------------------
g-5-7---7--5-7---7-10-10------------
D-5-7---7--5-7---7-10-10------------
A-3-5---5--3-5---5--8--8------------
D-----0--------0--------------------

Bridge
e----------------------------------------------
b----------------------------------------------
g-------------------------------------10-10----
D-10-12-12-12-12-12-10-12-12-21-12-12-10-10----
A-10-12-12-12-12-12-10-12-12-12-12-12--8--8----
D-10-12-12-12-12-12-10-12-12-12-12-12----------

Bridge x3
e-----------------------------------
b-----------------------------------
g-----------------------------------
D-10-0-0-0-0-10-0-0-0-0-10-10-------
A-10-0-0-0-0-10-0-0-0-0--8--8-------
D-10-0-0-0-0-10-0-0-0-0-------------

Bridge
e----------------------------------------
b----------------------------------------
g---------------10-10-10-10-10-10-10-----
D----0-0-0-10-0-10-10-10-10-10-10-10-----
A-10-0-0-0-10-0--8--8--8--8--8--8--8-----
D-10-0-0-0-10-0--------------------------

Outro
Guitar 1 Plays all the way through the outro
e------------------------------------------------
b------------------------------------------------
g-----------------------5-5-5--------------------
D-0-0-0-0-3-3-3-3-2-2-0-5-5-5-5-5-5-5-5-5-3-3-3--
A-0-0-0-0-3-3-3-3-2-2-0-3-3-3-7-5-5-5-5-5-3-3-3--
D-0-0-0-0-3-3-3-3-2-2-0-------5-5-5-5-5-5-3-3-3--

Outro
Guitar 2
e--------------------------------------------------
b--------------------------------------------------
g-5-7-7-7-7-7-7-7-7-7-7-7-7-7-7-7-7-9-9-9-9-9-9-12-
D-x-x-x-x-x-x-x-x-x-x-x-x-x-x-x-x-x-x-x-x-x-x-x--x-
A-3-5-5-5-5-5-5-5-5-5-5-5-5-5-5-5-5-7-7-7-7-7-7-10-
D--------------------------------------------------

Outro
Guitar 2
e---------------------------------------------
b---------------------------------------------
g-10-10-10-10--8--8-14-14-14-14-14-14-14------
D--x--x--x--x--x--x--x--x--x--x--x--x--x------
A-10-10-10-10--8--8-12-12-12-12-12-12-12------
D---------------------------------------------

Outro
Guitar 2
e---------------------------------------------
b---------------------------------------------
g-14-14-14-14-14-14-14-7-12-12-12-12-12-12-12-
D--x--x--x--x--x--x--x-x--x--x--x--x--x--x--x-
A-12-12-12-12-12-12-12-5-10-10-10-10-10-10-10-
D---------------------------------------------

Outro
Guitar 2
e-------------------------------------------
b-------------------------------------------
g-10-10-10-10-10-5-5-7-7-7-7-5-7-9----------
D--x--x--x--x--x-x-x-x-x-x-x-x-x-x----------
A-10-10-10-10--8-3-3-5-5-5-5-3-5-7----------
D-------------------------------------------

Outro
Guitar 2
e----------------------------------------
b----------------------------------------
g-10-10-10-10-10-10-7-7-9-9-9-9-7-5-5----
D--x--x--x--x--x--x-x-x-x-x-x-x-x-x-x----
A--8--8--8--8-10-10-5-5-7-7-7-7-5-3-3----
D----------------------------------------

Outro
Guitar 2
e--------------------------------------------
b--------------------------------------------
g-5-5-5-5-7-7-7-5-7-7-7-7-5---9-10--12-10-9--
D-x-x-x-x-x-x-x-x-x-x-x-x-x---x--x---x--x-x--
A-3-3-3-3-5-5-5-3-5-5-5-5-3-0-7--8--10--8-7--
D--------------------------------------------

Outro
Guitar 2
e---------------------------------------------
b---------------------------------------------
g--12-12-12-12-12-12-10-10-10-10-10-10-10-5---
D---x--x--x--x--x--x--x--x--x--x--x--x--x-x---
A--10-10-10-10-10-10--8--8--8--8--8--8--8-3---
D---------------------------------------------

Outro
Guitar 2
e------------------------------------------
b------------------------------------------
g-10-10-10-10-10-10-10-10-10-10-10-10------
D--x--x--x--x--x--x--x--x--x--x--x--x------
A-10-10-10-10-10-10--8--8--8--8--8--8------
D------------------------------------------

*=Pick the note whilst touching the string directly over
the frer. 
/=Slide
x=Dampen
Comments