Puddle Of Mudd - Change My Mind Chords & Tabs

 

Change My Mind Chords & Tabs

Puddle Of Mudd Chords & Tabs

Version: 2 Type: Tab 0 ratings
1 star 2 stars 3 stars 4 stars 5 stars
comments

Change My Mind Tab

change my mind - puddle of mudd
Standard Tuning
let all notes ring as long as possible
this is all abbreviated from the tab book,
ive done it out for one acoustic guitar
Intro:
e----------0----------0---------0---------0----------0-----------|
B----0-------0---0------0-----------0-------0---0------0---0-----|
G------1-----------8------8---8-------7-----------6----------4---|
D--2-----2-----9-----9------9-----8-----8-----7-----7----5-----5-|
A--2-----------9------------------8-----------7----------5-------|
E--0-----------0------------------0-----------0----------0-------|

Verse:
strum these chords
e-0--0--0--0--0-|
B-0--0--0--0--0-| this is just the progression,
G-1--8--7--6--4-| listen to the song for timing.
D-2--9--8--7--5-|
A-2--9--8--7--5-|
E-0--0--0--0--0-|
[ Tab from: http://www.guitartabs.cc/tabs/p/puddle_of_mudd/change_my_mind_tab_ver_2.html ]
Pre-Chorus & Chorus:
e-0--0--0--0--0--0--0--0--0--0--|
B-0--0--0--0--0--0--0--0--0--0--| again, just listen to the
G-9--7--5--4--2--0--1--7--6--5--| song for timing
D-9--7--5--4--2--0--2--7--6--5--|
A-7--5--3--2--0--2--2--5--4--3--|
E-0--x--x--x--x--3--0--x--x--x--|

do the intro again, then the verse, then strum this out
e-0--0--0--0--0--0--0--0-|
B-0--0--0--0--0--0--0--0-| listen to song for timing
G-1--7--6--5--2--0--6--7-|
D-2--7--6--5--2--0--6--7-|
A-2--5--4--3--0--2--4--5-|
E-0--x--x--x--x--3--x--x-|

on this chorus play these powerchords 8x each.
e----------------------|
B----------------------|
G-9--7--5--4--2--------|
D-9--7--5--4--2--5--2--|
A-7--5--3--2--0--5--2--|
E----------------3--0--|

now go through the verse, but strum it hard and wild, go crazy,
if you feel like it go through your own strumming pattern on it
and speed things up a bit to compensate for the lack of an
electric guitar in the background.

after that play the intro riff and slow it down as you play.
twelve strings rock
tabbed by:
	-twelvestrigtex_
Comments