Puddle Of Mudd - Bring Me Down Chords & Tabs

 

Bring Me Down Chords & Tabs

Puddle Of Mudd Chords & Tabs

Version: 4 Type: Tab 0 ratings
1 star 2 stars 3 stars 4 stars 5 stars
comments

Bring Me Down Tab

puddle of mudd
bring me down
from the album come clean
intro
lead guitar
|-----------------------------------------------
|-----------------------------------------------
|-8-8-8----13-111111---16-161616-11-------7-7---
|-x-x-x-----x-x-x-x-----x-x-x-x---x-7b-7b-7-7---
|-6-6-6/11-11-9-9-9/14-14-4-4-4/9-9-------5-5---
|-----------------------------------------------
2nd guitar(strum each chord about 5 times each)
|-----------------------------------------------
|-----------------------------------------------
|------------------------------------7----------
|-6-----------9-----------4----------7----------
|-6-----------9-----------4----------5----------
|-4-----------7-----------2---------------------
verse(strum these chords a number of times each palm muting
on an off)
|-----------------------------------------------
|-----------------------------------------------
|-6-----------9------------4----------7---------
|-6-----------9------------4----------7---------
|-4-----------7------------2----------5---------
|-----------------------------------------------
chorus-G#5, B5, F#5, D5 (like chorus only with out the lead
guitar.

well, that's pretty much it this one of my first tabs so if
it's a little off don't blame me.
[ Tab from: http://www.guitartabs.cc/tabs/p/puddle_of_mudd/bring_me_down_tab_ver_4.html ]
Comments