Puddle Of Mudd - Bring Me Down Chords & Tabs

 

Bring Me Down Chords & Tabs

Puddle Of Mudd Chords & Tabs

Version: 2 Type: Tab 0 ratings
1 star 2 stars 3 stars 4 stars 5 stars
comments

Bring Me Down Tab

   
regular tuning

Intro 2x
Guitar 1
E----------
B----------
G---4-8-7-6
D-6-4-8-7-6
A-6-2-6-5-4
E-4--------

On the second time guitar 2 plays:
E-----------------------------------
B-----------------------------------
G-----------------------------------
D-6-6-6-7-6-4-4-4-8-8-8-9-7-7-6-6---
A-----------------------------------
E-----------------------------------

Verse: Guitar1 plays intro chords pm : 1x
then play the chords on the beat of the drums:1x
Now guitar 1 plays chords on the beat and guitar 2 plays the chords pm: 2x
on the 2nd time guitar 1 plays pre chorus:
G-8-7-6
D-8-7-6 } 2x
A-6-5-4
[ Tab from: http://www.guitartabs.cc/tabs/p/puddle_of_mudd/bring_me_down_tab_ver_2.html ]
Chorus
E---------
B---------
G-7-6-4---
D-7-6-4-6- }2x
A-5-4-2-6-
E-------4-

then play the intro once

Verse:
play the chords on the beat 2x
play intro 2x but on 2nd time play pre chorus

Play chorus 4x and then the same chords without delay 4x

Bridge

E----------------------------------
B----------------------------------
G-------------4-----8------7-----6-
D-----6-----4-----8------7-----6---
A---6-----2-----6------5-----4-----
E-4--------------------------------
pm.................................
play that 5x and on the 4th time guitar 2 plays the intro chords pm

now play the chorus
for any comments or n e thing email me at virus_dude12@hotmail.com


Comments