Puddle Of Mudd - Blurry Chords & Tabs

 

Blurry Chords & Tabs

Puddle Of Mudd Chords & Tabs

Version: 7 Type: Tab 0 ratings
1 star 2 stars 3 stars 4 stars 5 stars
comments

Blurry Tab

   
PUDDLE OF MUDD - Blurry
Album: Come Clean
Tabbed by: Gordon (boy_makes_music@hotmail.com)
Tuning: Standard (down a half step)
        (low to high: Eb, Ab, Db, Gb, Bb, Eb)

*****************************************************

LEGEND:
* = harmonic
/ = slide up
\ = slide down

*****************************************************

The second I heard the intro to this song I knew I had to learn it.  I
love harmonics more than anything else on guitar so this song was
generally easy for me to figure out.  The tuning in this song is
EXTREMELY important to get the correct notes on the harmonics.  Also,
the main riff that is featured in this song is really tricky to get
your head around and get the fingering right, I recommened barring your
ring finger over the 5th fret harmonic area and using your index to
move up the A string to get the right root notes.

This tab is very straight forward,  most of the song is tabbed here very
accurately but if you see any mistakes please e-mail me.  There are some
parts that are varied but are based around other riffs that I didn't tab
because they're quite easy to figure out with the help of the tab below.
Enjoy!

INTRO & VERSE:
*****************************************************

Guitar 1  - Acoustic - Main Riff:
eb|--------------------------------------------------
Bb|-----------------5*----------------5*-------------
Gb|--------5*----------5*----5*----------5*----5*----
Db|-----5*----5*----------------5*----------------5*-
Ab|--3-----------3--------3--------3--------3--------
Eb|--------------------------------------------------

eb|--------------------------------------------------
Bb|-----------------5*----------------5*-------------
Gb|--------5*----------5*----5*----------5*----5*----
Db|-----5*----5*----------------5*----------------5*-
Ab|--5-----------5--------5--------5--------5--------
Eb|--------------------------------------------------

eb|--------------------------------------------5*----
Bb|-----------------5*----------------5*----------5*-
Gb|--------5*----------5*----5*----------5*----------
Db|-----5*----5*----------------5*-------------------
Ab|--7*----------7*-------7*-------7*-------7*-------
Eb|--------------------------------------------------

eb|--------------------------------------------5*----
Bb|-----------------5*----------------5*----------5*-
Gb|--------5*----------5*----5*----------5*----------
Db|-----5*----5*----------------5*-------------------
Ab|--7*----------7*-------7*-------7*-------7*-------
Eb|--------------------------------------------------
[ Tab from: http://www.guitartabs.cc/tabs/p/puddle_of_mudd/blurry_tab_ver_7.html ]
Guitar 2 - Acoustic - Strum these chords:
eb|--------------------------------------------------
Bb|--------------------------------------------------
Gb|--5--7--9--9--------------------------------------
Db|--5--7--9--9--------------------------------------
Ab|--3--5--7--7--------------------------------------
Eb|--------------------------------------------------

Guitar 3 - Electric - Lead:
eb|--17--15----17--19----17--19----------------------
Bb|--------------------------------------------------
Gb|--------------------------------------------------
Db|--------------------------------------------------
Ab|--------------------------------------------------
Eb|--------------------------------------------------

Right before the chorus they're faintly playing a simple
octave riff but I can't hear it well enough to hear the notes.

CHORUS:
*****************************************************

2 Guitars - Electric/Distortion - Strum these chords:
eb|--------------------------------------------------
Bb|--------------------------------------------------
Gb|--------------------------------------------------
Db|--5--7--9--9--------------------------------------
Ab|--3--5--7--7--------------------------------------
Eb|--3--5--7--7--------------------------------------

BRIDGE:
*****************************************************

Guitar 1 - Electric/Distortion - Strum these chords:
eb|--------------------------------------------------
Bb|--------------------------------------------------
Gb|--5--7--9--9--------------------------------------
Db|--5--7--9--9--------------------------------------
Ab|--3--5--7--7--------------------------------------
Eb|--------------------------------------------------

Guitar 2 - Electric/Distortion:
eb|--------------------------------------------------
Bb|--------------------------------------------------
Gb|--10/12--12/--10/12\11---12--12/------------------
Db|--------------------------------------------------
Ab|---8/10--10/---8/10\9----10--10/------------------
Eb|--------------------------------------------------

OUTRO:
*****************************************************

Guitar 1 - Electric/Distortion - Strum these chords:
eb|--------------------------------------------------
Bb|--------------------------------------------------
Gb|--5--7--9--9--------------------------------------
Db|--5--7--9--9--------------------------------------
Ab|--3--5--7--7--------------------------------------
Eb|--------------------------------------------------

Guitar 2 - Electric - Lead:
eb|---------------------------------------------------------------------------------------
Bb|------8--8------------------8--8------------------9--9---------------------------------
Gb|--7-9------9--9-7--9----7-9------9--9-7--9----7-9------9-9--7-9----9-7--9--7--9--7--7--
Db|---------------------------------------------------------------------------------------
Ab|---------------------------------------------------------------------------------------
Eb|---------------------------------------------------------------------------------------

*****************************************************
boy_makes_music@hotmail.com
Comments