Puddle Of Mudd - Blurry Chords & Tabs

 

Blurry Chords & Tabs

Puddle Of Mudd Chords & Tabs

Version: 12 Type: Tab 0 ratings
1 star 2 stars 3 stars 4 stars 5 stars
comments

Blurry Tab

   
Title - Blurry
Artist - Puddle of Mudd
Tabber - Roo6339
E-Mail - Roo_6339@hotmail.com

Intro/Verse:

keep repeating until chorus

e|-----------------------------------------------|
B|-----------------------------------------------|
G|-----------------------------------------------|
D|------------------------1-1-1-1----1-1-1-1-1---| 
A|--2-2-2-2-22-4-4-4-4-44---------44----------4--|
E|-----------------------------------------------|

Chorus:

e|-----------------------------------------------|
B|-----------------------------------------------|
G|-4-4-4-4-44-/6-6-6-6-66-/8-8-8-8-86-8-8-8-8-86-|
D|-4-4-4-4-44-/6-6-6-6-66-/8-8-8-8-86-8-8-8-8-86-| x2
A|-2-2-2-2-22-/4-4-4-4-44-/6-6-6-6-64-6-6-6-6-64-|
E|-----------------------------------------------|

Bridge:

e|---------------------------------------------------------|
B|---------------------------------------------------------|
G|---------------------------------------------------------|
D|-3h4p4-3h4p4-4-3-3h4p4-3h4p4-4-3-3h4p4-3h4p4-4-3-3h4p4-4-|
A|---------------------------------------------------------|
E|---------------------------------------------------------|
[ Tab from: http://www.guitartabs.cc/tabs/p/puddle_of_mudd/blurry_tab_ver_12.html ]
e|-----------------------------------------------|
B|-----------------------------------------------|
G|-4-4-4-4-44-/6-6-6-6-66-/8-8-8-8-86-8-8-8-8-86-|
D|-4-4-4-4-44-/6-6-6-6-66-/8-8-8-8-86-8-8-8-8-86-| x2
A|-2-2-2-2-22-/4-4-4-4-44-/6-6-6-6-64-6-6-6-6-64-|
E|-----------------------------------------------|

Then go back to the chorus

Outro:

Play this once:

e|-----------------------------------------------|
B|--7------------7------------7------------------|
G|----8-6-8--6-8---8-6-8--6-8---8-6-8--6-8-6-8---|
D|-----------------------------------------------|
A|-----------------------------------------------|
E|-----------------------------------------------|

Then:

e|-------------------------------------------------|
B|------7------------9------------8----------------|
G|--6-8---8-6-8--6-8---8-6-8--6-8---8-6-8--6-8-6-8-|
D|-------------------------------------------------|
A|-------------------------------------------------|
E|-------------------------------------------------|

e|------------------------------------------------|
B|------------------------------------------------|
G|------------------------------------------------|
D|------------------------1-1-1-1----1*-1-1-1-1---| x2 *the second time only 
A|--2-2-2-2-22-4-4-4-4-44---------44----------4---|     play up to here
E|------------------------------------------------|

END

That's it, any comments, criticism, thanks, corrections, death threats,
whatever you want, email me. my address is up there.
Comments