Puddle Of Mudd - Blurry Chords & Tabs

 

Blurry Chords & Tabs

Puddle Of Mudd Chords & Tabs

Version: 5 Type: Bass Tab 0 ratings
1 star 2 stars 3 stars 4 stars 5 stars
comments

Blurry Bass Tab

   
tuning(c#,a,d,g)

intro/verse/bridge:
g ----------------------------------------------------------------
d ----------------------------------------------------------------
a -2-2-2-2-2-2-2-2-4-4-4-4-4-4-4-4--------------------------------
c#---------------------------------2-2-2-2-2-2-2-2-2-2-2-2-2-2-2-2
[ Tab from: http://www.guitartabs.cc/tabs/p/puddle_of_mudd/blurry_btab_ver_5.html ]
chorus:
g ----------------------------------------------------------------
d ----------------------------------------------------------------
a -2-2-2-2-2-2-2-2-4-4-4-4-4-4-4-4-6-6-6-6-6-6-6-6-6-6-6-6-6-6-6-6
c#----------------------------------------------------------------tuning(c#,a,d,g)

intro/verse/bridge:
g ----------------------------------------------------------------
d ----------------------------------------------------------------
a -2-2-2-2-2-2-2-2-4-4-4-4-4-4-4-4--------------------------------
c#---------------------------------2-2-2-2-2-2-2-2-2-2-2-2-2-2-2-2

chorus:
g ----------------------------------------------------------------
d ----------------------------------------------------------------
a -2-2-2-2-2-2-2-2-4-4-4-4-4-4-4-4-6-6-6-6-6-6-6-6-6-6-6-6-6-6-6-6
c#----------------------------------------------------------------
Comments