Puddle Of Mudd - Blurry Bridge And Solo Chords & Tabs

 

Blurry Bridge And Solo Chords & Tabs

Puddle Of Mudd Chords & Tabs

Version: 1 Type: Tab 0 ratings
1 star 2 stars 3 stars 4 stars 5 stars
comments

Blurry Bridge And Solo Tab

I told you I'd figure out these too.   Actually they were so easy.
Here they are.


Bridge: (repeat a couple times)
----------------------------------------------------
----------------------------------------------------
----------------------------------------------------
---3-h4444p3h4444p3h4p3-----------------------------
------------------------4---------------------------
----------------------------------------------------
[ Tab from: http://www.guitartabs.cc/tabs/p/puddle_of_mudd/blurry_bridge_and_solo_tab.html ]
solo:
----------------------------------------------------
---7-----------9-----------7-----------9------------
-----8-6-8-6h8---8-6-8-6h8---8-6-8-6h8---8-6-8-6h8--
----------------------------------------------------
----------------------------------------------------
----------------------------------------------------


Thats about it, listen to the song for timings and the order things
are played in.   Any questions just email me at BVarneyUSA@netscape.net
Comments