Puddle Of Mudd - Away From Me Chords & Tabs

 

Away From Me Chords & Tabs

Puddle Of Mudd Chords & Tabs

Version: 1 Type: Tab 2 ratings
1 star 2 stars 3 stars 4 stars 5 stars
comments

Away From Me Tab

Puddle Of Mudd- "Away From Me"
Tabbed By: freebird784ever

All guitars in double dropped-D tunning(high to low: D1 Ab Db Gb Bb Db)

Intro: Guitar1 (Clean/ Wes)
                                    1.------------------------------|
|----------------------------------|-----------------------------|  |
|---0---0---0---0------0-------0---|-----0---0---0-----0-------0-|  |
|-4---4---4---4---/7-7---75-5---5-|-4-4---4---4---/10---109-9--|
|----------------------------------|-----------------------------|
|----------------------------------|-----------------------------|
|----------------------------------|-----------------------------|


 2.----------------------------------|
|---------------------------------|  |
|-----0---0---0---0---0-0-0-------|  |
|-4-4---4---4---4---4---4b4b------|
|------------------------------0--|
|------------------------------0--|
|------------------------------0--|
                      *

(* Guitar 2 Dist/ Paul)

Guitar 2 (Guitar 1 repeats Riff A)
|--------------------------------|-------------------------------|
|--------------------------------|-------------------------------|
|--------------------------------|-------------------------------|
|--------------------------------|-------------------------------|
|-9---9-9-9-9-9-9---3-3--3--3-3--|-0---0-0-0-0-0-0---0-0---0---0-|
|-9---9-9-9-9-9-9---3-3--3--3-3--|-0---0-0-0-0-0-0---0-0---0---0-|


Verse:

Guitar 2 w/light dist. and delay
|----------------------|-------|-------------------|------------------|
|----3--------3--------|-------|---3-------3-------|------3---5---5/7-|
|--4---4----4---4echo--|-(4)---|-4---4---4---4echo-|(4)-2---2---2-----|
|----------------------|-------|-------------------|------------------|
|----------------------|-------|-------------------|------------------|
|----------------------|-------|-------------------|------------------|
                                                          ^
                                                         delay off

|----------------------|-----------------------|
|----3--------3--------|--------3---5---5---3--|
|--4---4----4---4echo--|-(4)--2---2---2--------|
|----------------------|-----------------------|
|----------------------|-----------------------|
|----------------------|-----------------------|
 ^                              ^
delay on                        delay off
[ Tab from: http://www.guitartabs.cc/tabs/p/puddle_of_mudd/away_from_me_tab.html ]
|----------------------|-----------------------|
|----3--------3--------|--------3---5---5/7----|
|--4---4----4---4echo--|-(4)--2---2---2--------|
|----------------------|-----------------------|
|----------------------|-----------------------|
|----------------------|-----------------------|
|^                              ^
|delay on                       delay off
|
|----------------------------------|----------------------------------|
|-0-0-0-0-0-0-0-0----0-0-0-0-0-0-0-|----0-0-0-0-0-0-0-0--0-0-0-0-0-0-0|
|-4-4-4-4-4-4-4-4b---4-4-4-4-4-4-4b|(4)-4-4-4-4-4-4-4-4b-4-4-4-4-4-4-4|
|----------------------------------|--------------------gradual bend--|
|----------------------------------|----------------------------------|
|----------------------------------|----------------------------------|


Chorus:
Guitar 1                                               PLAY 4 TIMES
|--------------------------------|--------------------------------|
|--------------------------------|--------------------------------|
|--------------------------------|--------------------------------|
|-4--4-4-4-4-4-4-----------------|--------------------------------|
|-2--2-2-2-2-2-2---3-3-3-3-3-3-3-|-0--0-0-0-0-0-0---0-0-0-0-0-0-0-|
|------------------3-3-3-3-3-3-3-|-0--0-0-0-0-0-0---0-0-0-0-0-0-0-|
|
|
|Guitar 2
|--------------------------------|--------------------------------|
|--------------------------------|--------------------------------|
|--------------------------------|--------------------------------|
|--------------------------------|--------------------------------|
|-9--9-9-9-9-9-9---3-3-3-3-3-3-3-|-0--0-0-0-0-0-0---0-0-0-0-0-0-0-|
|-9--9-9-9-9-9-9---3-3-3-3-3-3-3-|-0--0-0-0-0-0-0---0-0-0-0-0-0-0-|


Bridge:
Guitar 1
|-----------------------|-----------------------|-repeat-|--------------------------|
|-----------------------|-----------------------|-1st----|--------------------------|
|-----------------------|-----------------------|measure-|--------------------------|
|-4-4--4-4--4/7-7--7--7-|-----------------------|--------|-------------9-9--9-9-9-9-|
|-2-2--2-2--2/5-5--5--5-|-7-7--7-7--7-2-2--2--2-|--------|-7-7--7-7--7-7-7--7-7-7-7-|
|-----------------------|-7-7--7-7--7-2-2--2--2-|--------|-7-7--7-7--7--------------|
|
|
|Guitar 2
|-------------------------|------------------|-repeat-|---------------------------|
|-------------------------|------------------|--1st---|---------------------------|
|-------------------------|------------------|-measure|---------------------------|
|-------------------------|------------------|--------|---------------------------|
|-9999999-12121212121212-9|-777777--222222-0-|--------|-7777777-14141414141414-12-|
|-9999999-12121212121212-9|-777777--222222-0-|--------|-7777777-14141414141414-12-|
|
|
|Guitar 3 w/dist 2nd time only
|---------------------|----------------|----------------|---------------------|
|---------------------|----------------|----------------|---------------------|
|-8------7------------|-6-----4--------|-8------9-------|-96--7-64--4-------|
|-X------X------------|-X-----X--------|-X------X-------|-X-X--X-X-X--X-------|
|-6------5------------|-4-----2--------|-6------7-------|-7-4--5-4-2--2-------|
|---------------------|----------------|----------------|---------------------|
Comments