Pudding Fields - Sodni Dan Album Chords & Tabs

 

Sodni Dan Album Chords & Tabs

Pudding Fields Chords & Tabs

Version: 1 Type: Tab 0 ratings
1 star 2 stars 3 stars 4 stars 5 stars
comments

Sodni Dan Album Tab

   
Pudding Fields - Sodni dan guitar tab
http://www.pudding-fields.com
tab by Maksim Vergan - GeWiT

1. Kupid
Intro (dist.): 
C Bb

Bdge. (dist.):
  F      C        Bb
1:-----x---x-----x-----
2:-----x---x-----x-----
3:-----x---x-----x-----
4:-----x-5-x-1/3-x-3---
5:-3-3-x-3-x-----x-1---
6:-1-1-x---x-----x-----

Verse (clean):
Cm Bb

Chorus (dist.):
C5, Bb5


2. Belo
Intro (dist.)
   G      D#        F
1:--------------------     ---------------------
2:--------4-4-4---4---     --------4-4-4--------
3:--------3-3-3---3---  x3 --------3-3-3--3-----
4:-5-5/0--1-1-1---1-3-     -5-5/0--0-1-0--3-----
5:-5-5/0------------3-     -5-3/0---------1-----
6:-3-3/0------------1-     -3-3/0---------------

Verse (dist.):
   G           G       D#                  G    D#
1:--------    -------------------------------------
2:--------    -------------------------------------
3:-------- x4 ---------8--8-7-8--8-7---------------
4:-5-5/0--    -5-5-----8--8-7-8--8-7-------5-5--1--
5:-5-5/0--    -5-5----/6--6-5-6--6-5-8-8---5-5--1--
6:-3-3/0--    -3-3-------------------6-6---3-3-----

Chorus (dist.):
   G               D#              Bb              F
1:-6-6-6-6-6-6-6-6-6-6-6-6-6-6-6-6-6-6-6-6-6-6-6-6-5-5-5-6-6-8-8-8--
2:-8-8-8-8-8-8-8-8-4-4-4-4-4-4-4-4-6-6-6-6-6-6-6-6-6-6-6-6-6-6-6-6--

Bridge (dist.)
4:--------------------    -/3-------/7-
5:-/5~~~~~~-/8~~~~~~~- x2 -/5-------/8-

Bridge (clean)
   Dm     F
1:----5-------------
2:----6--------10---
3:---7-------10-----
4:--7------10-------
5:-5------8---------

Solo (dist.)
   Dm            F            Dm            F
1:-10----10-    -5----5--    -8-----8--    -5---
2:-13)15-15- x5 -8)10-10- x5 -11)13-13- x5 -8)10-

Sax solo riff. (dist.):
   G   D#  Bb  F
3:---------3-----
4:-5---1---3---3-
5:-5---1---1---3-
6:-3-----------1-


3. Srebrna Krogla
Verse:
   G                                         B  C

3:-------------|--------------------|--------4--5--
4:-------------|--------------------|--------4--5--
5:-----5-----5-|-----5-----5------5-|-----5--2--3--
6:-3-3---3-3---|-3-3---3-3----3-3---|-3-3----------

3:-------------|--------4--5--    ----5--7-5-4-2-
4:-------------|--------4--5-- X2 -5--5--x-x-x-x-
5:-----5-----5-|-----5--2--3--    -5--3--5-3-2-0-
6:-3-3---3-3---|-3-3----------    -3-------------

Bb F

Chorus:
Bb, F

   G       Bb    D#
1:-6-6-6-6-6-6-6-8-8-8-8-8-8-8-8-8--
2:-6-6-6-6-6-6-6-6-6-6-6-6-6-6-6-6--

   Bb            F                 G       Bb    D#
1:-6-6-6-6-6-6-6-5-5-5-5-5-5-5-5-5-6-6-6-6-6-6-6-8-8-8-8-8-8-8-8-8--
2:-6-6-6-6-6-6-6-6-6-6-6-6-6-6-6-6-6-6-6-6-6-6-6-6-6-6-6-6-6-6-6-6--

Outro (clean):
Bb, F, G, D#

4. Halo Zemlja
Intro: 
         A             G
5:-3-2-------------3-2--------
6:-----3-5---0-3-5-----3---3-- x4

4:-2-0-------------2-0--------    ---------7/0--
5:-----2-3---0-2-3-----2---2-- x2 -3-2-----7/0--
6:----------------------------    -----3-0-5/0--

Verse:
A G F G

Bridge:
A E F G C E

Chorus:
F A F G E F G

5. Oz
Verse:
(Clean)Fm D# Fm D# (dist)F C# G# D# C C#

Chorus:
F  C# D# x2
G# C# D#
F  C# D#

Bridge: 

Fm D#

6. Dan Potem (drop D)
Bridge:
   A
4:---------3-3-3-3---------3-3-3-3---------2-2-2-2---------2-2-2-2-
5:-0-0-0-0---------0-0-0-0---------0-0-0-0---------0-0-0-0---------
6:-----------------------------------------------------------------
                                                                         x2
   C                               G
4:---------5-5-5-5---------5-5-5-5---------5-5-5-5---------5-5-5-5-
5:-3-3-3-3---------3-3-3-3-----------------------------------------
6:---------------------------------5-5-5-5---------5-5-5-5---------
[ Tab from: http://www.guitartabs.cc/tabs/p/pudding_fields/sodni_dan_album_tab.html ]
2:-3-|----
3:-2-|----
4:-0-|-0--
5:---|-0--
6:---|-0--

Verse:
Dm F C

Chorus:
   D     Bb           F    C
3:-7---9-10-9-7-5-----5----5/7/5-
4:-------------------------------
5:-5---7-8--7-5-3-----3----3/5/3-

Solo:
Bb

7. Najlepše Sanje
Verse:
   Em                          C
6:-7--|--5-0--|--7--|--5-0--|-----|--5-0--|--7--|--5-0--
5:-8--|--5-0--|--8--|--5-0--|--5--|--5-0--|--8--|--5-0--
4:-9--|--5-0--|--9--|--5-0--|--5--|--5-0--|--9--|--5-0--
3:-9--|--7-0--|--9--|--7-0--|--5--|--7-0--|--9--|--7-0--
2:-7--|--7----|--7--|--7----|--3--|--7----|--7--|--7----
1:----|--5----|-----|--5----|-----|--5----|-----|--5----

Chorus:
   E   A   C   E   G   D   C   E
3:-----2---2-----------7---5------
2:-2---0---3---2---5---5---3---2--
1:-0-----------0---3-----------0--

Chorus2:

3:-9---------------12--11--9---9--
4:--------------------------------
5:-7---------------10--9---7---7--

8. Edina Moja
1st part:
   C                 Em  F   G     F   G   C   Am     F   G   C
6:-0----0-0-0----0-0-0---1---3--|--1---3---0-0-0---|--1---3---0--
5:-1----1-1-1----1-1-0---1---3--|--1---3---1-1-1---|--1---3---1--
4:-0----0-0-0----0-0-0---2---4--|--2---4---0-0-2---|--2---4---0--
3:-2----2-0-2----2-0-2---3---5--|--3---5---2-0-2---|--3---5---2--
2:-3----3-2-3----3-2-2---3---5--|--3---5---3-2-0---|--3---5---3--
1:-------------------0---1---3--|--1---3-----------|--1---3------

2nd part:
   C       Em      F       G       C
6:-----12------12------13------15------12--
5:---13------12------13------15------13----
4:-12------12------14------16------12------

   F       G       C       Am
6:------13-----15------12------12--
5:---13------15------13------13----
4:-14------16------12------14------


9. Vesoljska
Intro:
(Dist.) G E C (Clean) G D 3x -> C D

Verse:
Em C G D x3 -> C D

Chorus:
   G   D    E   C            G   D     E  C          G   D   E   C     G   D   E C D
3:-----7----9---5---------|------7-----9--5-------|------7---9---5--|------7---9-5-7--
4:-5---7----9---5---------|--5---7-----9--5-------|--5---7---9---5--|--5---7---9-5-7--
5:-5---5--/7----3--2p3p2--|--5---5---/7---3--3p5--|--5---5---7---3--|--5---5---7-3-5--
6:-3----------------------|--3--------------------|--3--------------|--3--------------

Solo:

4:--------------------------|--------------------7-9--
3:-----5---5-7-5-7/9-7-5----|------5---5-7-5-7/9------ x2
2:-5p7---7---------------7--|--5p7---7----------------

1:------------------------------|---------------------10-12--|--------------------------------
2:-----8---8-10-8-10/12-10-8----|-----8--8-10-8-10/12--------|-/8-8-8-8-8-8-8-8-7p8p7--8--10--
3:-7p9---9-------------------9--|-7p9---9--------------------|-------------------------9--7---


10. Sodni dan
Intro & Chorus (Dist.):
   D Bb F   C 
3:-7----10--9-10-9---5--
4:---------------------
5:-5----8---7-8--7---3--

Verse (Clean):
Dm C F x2 -> Bb Dm Bb F C

Solo:
4:-----------3---3p5p3-----------3---3p5p3------
5:-0/5/0-3p5---5-------5-3---3p5---5-------5-3-- x2
6:-------------------------1--------------------

11.Belo Horizonte
Verse:
A E F#m

Bridge:
E F#m

Chorus:
B A G A

Outro Clean:

   Bbm G   A   F
6:-7---5---3---1--
5:-7---5---3---1--
4:-7---6---4---2--
3:-9---7---5---3--
2:-9---7---5---3--
1:-7---5---3---1--

Outro Dist.:

   Bb  G   A   F     Bb  G   A    F          Bb  G    A    F   
4:----------------|-----------------------|--11--14---16---15--
3:-9---7---5---3--|--9---11--12---14---8--|--------------------
2:-9---7---5---3--|-----------------------|--9---12---14---13--
1:-7---5---3---1--|--7---9---10---12---6--|--------------------
Comments