Psychosis - C A Dead Bucket Chords & Tabs

 

C A Dead Bucket Chords & Tabs

Psychosis Chords & Tabs

Version: 1 Type: Tab 0 ratings
1 star 2 stars 3 stars 4 stars 5 stars
comments

C A Dead Bucket Tab

this is the full song

Intro
|-------------------------------------------------------------------------|
|-------------------------------------------------------------------------|
|-------------------------------------------------------------------------|
|-------------------------------------------------------------------------|
|-0-0-0-0-0-0-0----2-2-2-2-2-2-2---7-7-9-10-7-7-5-3-----------------------|
|-0-0-0-0-0-0-0----2-2-2-2-2-2-2---5-5-8-8--5-5-4-1-----------------------|
           . . .            . . .


[ Tab from: http://www.guitartabs.cc/tabs/p/psychosis/c_a_dead_bucket_tab.html ]
Verses
|-------------------------------------------------------------------------|
|------------------------7-8----------------------------------------------|
|-5-6-------7-8------------9-10-9-8---------------------------------------|
|---7-9-6-5---9-10-12-14------------6-7-----------------------------------|
|-------------------------------------8-6-5-3-1---------------------------|
|------------------------------------------------0-0-0-0-2-4-5-3-7-2-4-5-5|



Chorus
|-------------------------------------------------------------------------|
|-------------------------------------------------------------------------|
|-------8-9-7-7-6---------------------------------------------------------|
|-3-4-6-----------4-------------------------------------------------------|
|-2-3-5--------------3-5-6-8-9-11-13-10-6-5-------------------------------|
|-2-3-5--------------3-5-6-8----------------2-----------------------------|



Solo
|-2-2-2-2-2-365-8-7-5-----------------------------------------------8-7-6-6|
|---------------------6-8-8-8-9-11-12-15-14-13-10-8-6----------------------|
|-----------------------------------------------------3-2-1-5-6-8-7--------|
|--------------------------------------------------------------------------|
|--------------------------------------------------------------------------|
|--------------------------------------------------------------------------|
Comments