Psychedelic Jelly - Day Tripper Chords & Tabs

 

Day Tripper Chords & Tabs

Psychedelic Jelly Chords & Tabs

Version: 1 Type: Tab 0 ratings
1 star 2 stars 3 stars 4 stars 5 stars
comments

Day Tripper Tab

This is the cover version of "Daytripper" by Psychedelic Jelly.
The original version, of course, was by the Beatles.

DAYTRIPPER:
(lennon-mcartney)

Intro:
4----------------2--0-----4----0--2
5------------2---------2-----2-----
6--0--3--4-------------------------

Riff 1 is the same as the intro.
Riff 2 is the same as riff 1, just one lower on the strings on every note.

repeat riff 1........then riff 2 on part of the second line of the 1st verse and etc.
got a good reason, for taking the easy way out
                     "                        , now

----4--4--4--4--4--
----2--2--2--2--2--     (repeat this chord throughout)
She was a day tripper.......one way ticket yeh.....
[ Tab from: http://www.guitartabs.cc/tabs/p/psychedelic_jelly/day_tripper_tab.html ]
----6--6--6--6--6--
----4--4--4--4--4--        (repeat)
it took me so..........

----7--7--7--7--7--
----5--5--5--5--5--(repeat)
and i found out

repeat the rest of the verses and choruses like this......



SOLO:

1-------------------------------------------------0--2--0--------2-----2-----2----2
2----------------------------------0--0--3--0--3----------3--0---------------------
3----------------------2-----------------------------------------------------------
4-------0-----0--2--4----4--2------------------------------------------------------
5--2--2----2-----------------------------------------------------------------------
6----------------------------------------------------------------------------------


thanks for your time


Comments