Psychedelic Furs - Sister Europe Chords & Tabs

 

Sister Europe Chords & Tabs

Psychedelic Furs Chords & Tabs

Version: 1 Type: Bass Tab

Sister Europe Bass Tab

   
SISTER EUROPE
The Psychedelic Furs

Taken from the Columbia/Legacy album The Psychedelic Furs (1980/2002 Reissue)

Transcribed by: Damian Pamminger (TwitcheD_85@hotmail.com)

Standard tuning: E A D G

Fig. 1
|---------------------------------------------------------------------|----------|
|---------------------------------------------------------------------|-REPEAT---|
|-4-----4--4-------4-----4--4-------4-----4--4-------4-----4--4------|-----------|
|---------------------------------------------------------------------|----------|

Fig. 2a
| ----------------------------------------------------------------------------|
| ----------------------------------------------------------------------------|
|-4-----4--4-------4-----4--4---7-\--3-----3--3-------3-----3--3--0--1--2-----|
| ----------------------------------------------------------------------------|
[ Tab from: http://www.guitartabs.cc/tabs/p/psychedelic_furs/sister_europe_btab.html ]
Fig. 2b
| ----------------------------------------------------------------------------|
| ----------------------------------------------------------------------------|
|-4-----4--4-------4-----4--4---7-\--3-----3--3---7-\--3-----3--3--0--1--2----|
| ----------------------------------------------------------------------------|

| -------------------------------------------------------------------------------|
| -------------------------------------------------------------------------------|
|-4-----4--4-------4-----4--4---7-\--3-----3--3-------3--3--3--3--3--3--3--5-----|
| -------------------------------------------------------------------------------|

Fig. 3
|--------------------------------------------------------------------------------|
|--------------------------------------------------------------------------------|
|-------------------------------------------------------3-----3--3-------3-------|
|-5--5--5--3-4-5--5--5--3-4-5--5--5--3-4-5--5--5-5-3-----------------------------|

|----------------------------------------------------------------------------------|
|----------------------------------------------------------------------------------|
|-3--3--3-3-3-3-5--------------------------------------------------------3-----3---|
|-------------------5--5--5--3-4-5--5--5--3-4-5--5--5--3-4-5--5--5-5-3-------------|

| -------------------------------|
| -------------------------------|
|-3-------3-----3--3--0--1--2----|
| -------------------------------|

End
|--------------|
|--------------|
|-4------------|
|--------------|