Psychedelic Furs - Pulse Chords & Tabs

 

Pulse Chords & Tabs

Psychedelic Furs Chords & Tabs

Version: 1 Type: Bass Tab

Pulse Bass Tab

   
PULSE
The Psychedelic Furs

Taken from the Columbia/Legacy album The Psychedelic Furs (1980/2002 Reissue)

Transcribed by: Damian Pamminger (TwitcheD_85@hotmail.com)

Standard tuning: E A D G

Fig. 1a
|------------------------------------------------------------------------|
|------------------------------------------------------------------------|
|-0-0-0-0-0-0-0-0-0-0-0-0-0-0-0-0-0-0-0-0-0-0-0-0-0-0-0-0-0-0-0-0-0------|
|------------------------------------------------------------------------|

|-------------------|-------------|
|--------------14-\-|---REPEAT--- |
|-0-0-0-0-0-0------ |-eleven-more-|
|-------------------|----times----|

Fig. 1b
|-------------------|----------|---------------------|
|--------------14-\-|-REPEAT---|---7-7-7-7-7-7-9-----|
|-0-0-0-0-0-0------ |-six-more- |-0------------------|
|-------------------|--times--- |--------------------|
[ Tab from: http://www.guitartabs.cc/tabs/p/psychedelic_furs/pulse_btab.html ]
Fig. 2
|----------------------------------------------------------------------|
|----------------------------------------------------------------------|
|-5-5-5-5-4-5-5-5-3-3-3-3-2-3-3-3-0-0-0-0-0-0-2-3-0-0-0-0-0-0-2-3------|
|----------------------------------------------------------------------|

Fig. 3
|---------------------------------- |--------------|
|---------------------------------- |--REPEAT------|
|-0-0-0-0-0-0-2-3-0-0-0-0-0-3-2-3-|-three-more-----|
|---------------------------------- |---times------|

Fig. 4
|-----------------------------------------------------|
|------------------------------------7-7-7-7-7-7-7----|
|-0-0--------0-0--------0-0---------------------------|
|-----------------------------------------------------|

End
|---------------------------------------|
|---------------------------------------|
|-0-0--------0-0--------0-0--------0----|
|---------------------------------------|