Psychedelic Furs - India Chords & Tabs

 

India Chords & Tabs

Psychedelic Furs Chords & Tabs

Version: 1 Type: Bass Tab

India Bass Tab

   
INDIA
The Psychedelic Furs

Taken from the Columbia/Legacy album The Psychedelic Furs (1980/2002 Reissue)

Transcribed by: Damian Pamminger (TwitcheD_85@hotmail.com)

Standard tuning: E A D G
[ Tab from: http://www.guitartabs.cc/tabs/p/psychedelic_furs/india_btab.html ]
Fig. 1a
|----------------------------------------------------------------------|
|----------------------------------------------------------------------|
|----------------------------------------------------------------------|
|-5-5-5-5-5-5-5-5-5-5-5-7---7-7-7-5-5-5-5-5-5-5-5-5-5-5-3---3-3-3------|

Fill
|--------------------|
|--------------------|
|--------------------|
|-0--0-0-3-----------|

Fig. 1b
|------------------------------------ |--------------|
|------------------------------------ |--REPEAT------|
|------------------------------------ |-three-more---|
|-5-5-5-5-5-5-5-5-5-5-5-7---7-7-7-7-|---times--------|

End
|----------|----------------|
|----------|--Pause-for-----|
|----------|-the-rest-of----|
|-5--------|--the-end-------|