Psychedelic Furs - Imitation Of Christ Chords & Tabs

 

Imitation Of Christ Chords & Tabs

Psychedelic Furs Chords & Tabs

Version: 1 Type: Bass Tab

Imitation Of Christ Bass Tab

   
IMITATION OF CHRIST
The Psychedelic Furs

Taken from the Columbia/Legacy album The Psychedelic Furs (1980/2002 Reissue)

Transcribed by: Damian Pamminger (TwitcheD_85@hotmail.com)

Standard tuning: E A D G

Fig. 1
|---------------------------------------------------------------------|
|---------------------------------------------------------------------|
|---------------------------------------------------------------------|
|-1---1-1---1-1-0-1---1-1---1-1-0-5---5-5---5-5-0-5---5-5---5-5-0-----|
[ Tab from: http://www.guitartabs.cc/tabs/p/psychedelic_furs/imitation_of_christ_btab.html ]
Fig. 2a
| ----------------------------------------------------------------------|
| ----------------------------------------------------------------------|
| -5-5-5-5-5-5-5-5------------------------------------------------------|
|------------------7-7-7-7-7-7-7-7-5-5-5-5-5-5-5-5-5-5-5-5-5-5-5-5------|

Fig. 2b
| ----------------------------------------------------------------------|
| ----------------------------------------------------------------------|
| -5-5-5-5-5-5-5-5------------------------------------------------------|
|------------------7-7-7-7-7-7-7-7-5-5-5-5-5-5-5-5-5-5-5-5-5-5-5-0------|