Psychedelic Furs - Heaven Chords & Tabs

 

Heaven Chords & Tabs

Psychedelic Furs Chords & Tabs

Version: 1 Type: Bass Tab

Heaven Bass Tab

   
HEAVEN
The Psychedelic Furs

Taken from the Columbia album Mirror Moves (1984)

Transcribed by: Damian Pamminger (TwitcheD_85@hotmail.com)

Standard tuning: E A D G

Fig. 1a
|-----5-------5-------4-------4-------2-------2---------------------|
|------------------------------------------------------5-------5----|
|-3-3---3-3-3---3-2-2--2-2-2---2-0-0---0-0-0---0--------------------|
|--------------------------------------------------3-3---3-3-3---3--|
[ Tab from: http://www.guitartabs.cc/tabs/p/psychedelic_furs/heaven_btab.html ]
|-------------------------------------5-------5--------5-------5-7---|
|-----3-------3-------3-------3--------------------------------------|
|---------------------------------3-3---3-3-3---3-3-3---3-3-3--------|
|-1-1---1-1-1---1-1-1--1-1-1---1-------------------------------------|

Fig. 1b
|-----5-------5-------4-------4-------2-------2---------------------|
|------------------------------------------------------5-------5----|
|-3-3---3-3-3---3-2-2--2-2-2---2-0-0---0-0-0---0--------------------|
|--------------------------------------------------3-3---3-3-3---3--|

|-------------------------------------5-------5--------5-------5-----|
|-----3-------3-------3-------3--------------------------------------|
|---------------------------------3-3---3-3-3---3-3-3---3-3-3---3----|
|-1-1---1-1-1---1-1-1--1-1-1---1-------------------------------------|

Fig. 2
|---------|------------|-----5---|----------- |
|-----3---|--REPEAT--- |---------|--REPEAT--- |
|---------|-three-more-|-3-3---3-|-three-more-|
|-1-1---1-|---times----|---------|---times----|