Psy Wojny - Demokracja Chords & Tabs

 

Demokracja Chords & Tabs

Psy Wojny Chords & Tabs

Version: 1 Type: Tab 0 ratings
1 star 2 stars 3 stars 4 stars 5 stars
comments

Demokracja Tab

Artist:Psy Wojny
Song: Demokracja
Tabbed by:MGLaney 2003


Intro:
E|--------------------------------------------|
B|--------------------------------------------|
G|--------------------------------------------|
D|---------66---6-88---8-1010-----------------|
A|-------6-66---6-88---8-1010----------6------|
E|-8-6-8---44---4-66---6--8-8----8-6-8--------|

Main Riff:
E|---------------------------------------|
B|---------------------------------------|
G|---------------------------------------|
D|-6-66-66-8-88-88-10-1010-1010----------|
A|-6-66-66-8-88-88-10-1010-1010-------6--|
E|-4-44-44-6-66-66--8--8-8--8-8-8-6-8----|
[ Tab from: http://www.guitartabs.cc/tabs/p/psy_wojny/demokracja_tab.html ]
You can also play it like this:
E|-------------------------------------|
B|-------------------------------------|
G|---------3-33-33-5-55-55-------------|
D|-6-66-66-3-33-33-5-55-55-------1-----|
A|-6-66-66-1-11-11-3-33-33-3-1-3-------|
E|-4-44-44-----------------------------|

Then,it gets faster:
E|---------------------------------------------|
B|---------------------------------------------|
G|---------------------------------------------|
D|-66666666-88888888-1010101010101010----------|
A|-66666666-88888888-1010101010101010-------6--|
E|-44444444-66666666--8-8-8-8-8-8-8-8-8-6-8----|

Use palm-muting when neccessary

Dere Retsof's NoPride
Comments