Psm - Visa Versa Chorus Chords & Tabs

 

Visa Versa Chorus Chords & Tabs

Psm Chords & Tabs

Version: 1 Type: Tab 0 ratings
1 star 2 stars 3 stars 4 stars 5 stars
comments

Visa Versa Chorus Tab

Visa-Versa 
by Pot smokin monkeys (psm)


Beginning 
e ---------------------0-0-1-1-3-3-1-1-----
b --0-0-1-1-3-3-1-1-----------------------
g ----------------------------------------
d ----------------------------------------
a ----------------------------------------
E ----------------------------------------


e ---------------------------------------
b --------------------------------------
g --------------------------------------
d --------------------------------------
a --------------------------------------
E --0-0-1-1-3-3-1-1------------------
repeat 3 times

Chorus

[ Tab from: http://www.guitartabs.cc/tabs/p/psm/visa_versa_chorus_tab.html ]
e --0----3-3---5-5-5-5--3-3-0---
b --0----3-3---5-5-5-5--3-3-0---
g ------------------------------
d ------------------------------
a ------------------------------
E ------------------------------

then it repeats about four times




Ending


e --0----3-3---5-5-5-5--3-3-0---
b --0----3-3---5-5-5-5--3-3-0---
g --0----0-0---0-0-0-0--0-0-0---
d ------------------------------
a ------------------------------
E ------------------------------

e --00----33---55---33-0--------
b ------------------------------
g ------------------------------
d ------------------------------
a ------------------------------
E ------------------------------



Psm Rocks!
tabbed by Cole
Questions, comments, concerns send an E-mail to fatrat55110@yahoo.com
Comments