Prozzak - When I Think Of You Chords & Tabs

 

When I Think Of You Chords & Tabs

Prozzak Chords & Tabs

Version: 1 Type: Bass Tab

When I Think Of You Bass Tab

Song: When I Think Of You
Band: Prozzak
Instrument: Bass
Tuning: Standard
Album: Cruel Cruel World

(slight fuzz distortion through whole song)

Intro & Verses:


G|------------------------------------|
D|----12---10-------------------------|
A|-------12--12--10-10----10-12-10p8--|
E|-10----------13------13-----------8-|

---------------------------------------|
----12---10----------------------------|
-------12--12--10-10-10----------------|
-10----------13---------789------------|

---------------------------------------|
----12---10----------------------------|
-------12--12--10-10----10-12-10p8-----|
-10----------13------13-----------8----|

---------------------------------------|
------------------12---12--------------|
-10-10-8-8-----------------------------|
-----------10-1010---10--10------------|
[ Tab from: http://www.guitartabs.cc/tabs/p/prozzak/when_i_think_of_you_btab.html ]
---------------------------------------|
------------------12---12--------------|
-10-10-8-8-----------------------------|
-----------10-1010---10--10------------|

(not in the intro)
---10----12----------------------------|
---------------------12---12-----------|
-8----810---10-------------------------|
--------------10-1010---10--10---------|

---------------------------------------|
------------------12---12--------------|
-10-10-8-8-----------------------------|
-----------10-1010---10--10------------|

other Part:

G|---------------------------------------------------|
D|---------------------------------------------------|
A|-----------------88888888--------1010101010101010--|
E|-1010101010101010--------66666666------------------|

listen to the song to figure out the order. sorry it's pretty messy. 10's not 1's and 0's.