Prozzak - Pretty Girls Chords & Tabs

 

Pretty Girls Chords & Tabs

Prozzak Chords & Tabs

Version: 1 Type: Tab 0 ratings
1 star 2 stars 3 stars 4 stars 5 stars
comments

Pretty Girls Tab

I had to look all over for this song so i decided to save some people's time for the 
future and post it hear 

The only part i added was that high part 
at "would you like to go out for coffee"  
THAT WAS ALL ME!

First riff (chorus): 

e|--------------------------------| 
B|--------------------------------| 
G|.-4------------------7-7----4--.|    x3 
D|.-4----4-4----5-5----7-7----4--.| 
A|--2----4-4----5-5----5-5----2---| 
E|-------2-2----3-3---------------| 


e|----------------------| 
B|----------------------| 
G|-7-7------------------| 
D|-7-7---7--4-----5--7--| 
A|-5-5---7--4-----5--7--| 
E|-------5--2-----3--5--| 

Go back to main riff again, play a bunch... 

Verse: 
"If I were a dentist..." 
  P.M......................................... 
e|----------------------------------------------| 
B|----------------------------------------------| 
G|--7---------------4--------------2--4--2--4---|  x3 
D|--7--x16----------4--x12---------2--4--2--4---| 
A|--5---------------2--------------0--2--0--2---| 
E|----------------------------------------------| 

  P.M......................................... 
e|----------------------------------------------| 
B|----------------------------------------------| 
G|--7-------------------------------------------| 
D|--7--x16----------7---------------------------| 
A|--5---------------7--x16----------------------| 
E|------------------5---------------------------| 

[ Tab from: http://www.guitartabs.cc/tabs/p/prozzak/pretty_girls_tab.html ]
  "Cause every time..." 
  P.M......................................... 
e|----------------------------------------------| 
B|----------------------------------------------| 
G|----------------------------------------------| 
D|--5-------7-----------------------------------| 
A|--5--x8---7--x8-------------------------------| 
E|--3-------5-----------------------------------| 

Back to Chorus 

   Would you like to go out for some Coffee"

Note for this part there are two guitars playing at once after this high e part it 
goes back to one
 
Guitar 1 
e|--------------------------------| 
B|--------------------------------| 
G|.-6------------------9-9----6--.|    x3 
D|.-6----6-6----7-7----9-9----6--.| 
A|--4----6-6----7-7----7-7----4---| 
E|-------4-4----5-5---------------| 

Guitar 2
e|-17~~~//12~~\\20~/19
B|-------------------------------------|
G|-------------------------------------|
D|-------------------------------------|
A|-------------------------------------| 
E|-------------------------------------|

then it oges back to one guitar on tihs riff
e|----------------------| 
B|----------------------| 
G|-9-9------------------| 
D|-9-9---9--6-----7--9--| 
A|-7-7---9--6-----7--9--| 
E|-------7--4-----5--7--| 

Verse: 
"If I were a lawyer..." 
  P.M......................................... 
e|----------------------------------------------| 
B|----------------------------------------------| 
G|--9---------------6--------------4--6--4--6---|  x3 
D|--9--x16----------6--x12---------4--6--4--6---| 
A|--7---------------4--------------2--4--2--4---| 
E|----------------------------------------------| 

Ending riff 

e|--------------------------------| 
B|--------------------------------| 
G|.-6------------------9-9----6--.| 
D|.-6----6-6----7-7----9-9----6--.| 
A|--4----6-6----7-7----7-7----4---| 
E|-------4-4----5-5---------------|
Comments