Prozzak - Europa Chords & Tabs

 

Europa Chords & Tabs

Prozzak Chords & Tabs

Version: 2 Type: Tab 0 ratings
1 star 2 stars 3 stars 4 stars 5 stars
comments

Europa Tab

"Europa" by Prozzak
Tab by Jay Bartholomew jaybar36@hotmail.com

This is a very spanish song... it's fast guitar, but
most of this song is just vocals.

INTRO
e|--0-3-1-0---------0h1p0--------1---------------------------|
B|--1-------3-0-1-3-------1--------1-------------------------|
G|--2-----------------------2--------2-1/2\1-----------------|
D|--2-----------------------------------------2/3\2----------|
A|--0--------------------------------------------------------|
E|-----------------------------------------------------------|

e|------3-1-0---------0h1p0-------5-3-1-0h1p0h1p0------------|
B|----1-------3-0-1-3-------1--------------------------------|
G|--2-------------------------2------------------------------|
D|-----------------------------------------------------------|
A|-----------------------------------------------------------|
E|-----------------------------------------------------------|

The first chord is Am.  The very last part may look
confusing and hard, but all you do is just flutter your
finger on and off the first fret until it stops ringing.
Some parts are played very softly, like "2/3\2" listen
to the song to find out what.


PRE-SOLO
e|--0-0-0-0-0-0-0-0-1-1-1-1-1-1-1-1-----------------0-0-0-0---|
B|----------------------------------3-3-3-3-3-3-3-3-----------|
G|------------------------------------------------------------|
D|------------------------------------------------------------|
A|------------------------------------------------------------|
E|------------------------------------------------------------|

e|--4-4-4-4-5-5-5-5-8-8-8-8-7-7-7-7-10-10-10-10-8-8-8-8------|
B|-----------------------------------------------------------|
G|-----------------------------------------------------------|
D|-----------------------------------------------------------|
A|-----------------------------------------------------------|
E|-----------------------------------------------------------|
[ Tab from: http://www.guitartabs.cc/tabs/p/prozzak/europa_tab_ver_2.html ]
e|--11-11-11-11-12-12-12-12-12-12-12-12----------------------|
B|-----------------------------------------------------------|
G|-----------------------------------------------------------|
D|-----------------------------------------------------------|
A|-----------------------------------------------------------|
E|-----------------------------------------------------------|

This part before the solo is fast as hell!  That's spanish
guitar for ya though.  If you're not fast enough you might
try playing with your index and ring finger like you would
play bass guitar.  Get ready... the solo's just as fast,
yet much more complex, YAY!

SOLO
e|--12-10-8----0-3-1-1-0h1-------------7-5-------------------|
B|----------10-------------3---------0-----5-6-5h6p5h6p5-----|
G|-------------------------------0-2-------------------------|
D|-----------------------------------------------------------|
A|-----------------------------------------------------------|
E|-----------------------------------------------------------|

e|--0h1p0h1p1--0h1p0h1p0--0h1p0h1p0--5-----------------------|
B|-----------------------------------------------------------|
G|-----------------------------------------------------------|
D|-----------------------------------------------------------|
A|-----------------------------------------------------------|
E|-----------------------------------------------------------|

e|--0h1p0h1p1--0h1p0h1p0--0h1p0h1p0--8--7h8p7h8p7--7h8p7h8p7-|
B|-----------------------------------------------------------|
G|-----------------------------------------------------------|
D|-----------------------------------------------------------|
A|-----------------------------------------------------------|
E|-----------------------------------------------------------|

e|--12-12-12--10-10-10-10--8-8-8--7-7-7--8--5----------------|
B|-----------------------------------------------------------|
G|-----------------------------------------------------------|
D|-----------------------------------------------------------|
A|-----------------------------------------------------------|
E|-----------------------------------------------------------|

*GASP* okay... that's it.  I don't think there's any chords
during the singing... but there might be.  If you want something to
play try this chord progression: Am, Dm, Asus4, Asus2.  I think
those are the right names, if not its these: x02210, xx0231,
x02230, x02200.  Good luck!
Comments