Protest The Hero - Turn Soonest To The Sea Chords & Tabs

 

Turn Soonest To The Sea Chords & Tabs

Protest The Hero Chords & Tabs

Version: 1 Type: Tab

Turn Soonest To The Sea Tab

Protest the Hero
Turn Soonest to the Sea
Kezia
Check out the bands website www.protestthehero.com
www.undergroundoperations.com

tabbed by Glen Robertson

0:00 - 0:08 							 (repeat 2x)
e--------------------------------------------------------------------------|
b--------------------------------------------------------------------------|
g--------------------------------------------------------------------------|
d-------------------------------44--444---6/-------------------------------|
a--------------0h3h7---0h5h9----44--444---6/------------------0h3h7--0h5h9-|
d-0h3h7--0h5h9------------------44--444---------0h3h7--0h5h9---------------|

0:09 - ____
e-------13----13-16-13----|-------13----13-16-20-18-16-18-15-18-14-18-12\-|
b----13----13----------13-|----13----13-----------------------------------|
g-13----------------------|-13--------------------------------------------|
d-------------------------|-----------------------------------------------|
a-------------------------|-----------------------------------------------|
d-------------------------|-----------------------------------------------|

____ - 0:24			    (repeat 3x)\/2nd time only
e-------------13-16-13-16-18-15----------------|-------|
b----------14-------------------16-------------|-------|
g----10-13-------------------------15-12-------|-------|
d-11-------------------------------------13-10-|-14-15-|
a----------------------------------------------|-------|
d----------------------------------------------|-------|

0:25 - ____
e-------13----13-16-20-18-16-18-15-18-14-18-12\-|
b----13----13-----------------------------------|
g-13--------------------------------------------|
d-----------------------------------------------|
a-----------------------------------------------|
d-----------------------------------------------|

____ - 0:29
e-------------13-16-18-20-18-15--------------------------|
b----------14-------------------16-----------------------|
g----10-13-------------------------15-12-----------------|
d-11-------------------------------------13-10--444-4-4--|
a-----------------------------------------------444-4-4--|
d-----------------------------------------------444-4-4--|

0:30 - ____
e-------------------------------------------------------------------------|
b-------------------------------------------------------------------------|
g-16--18--16-16-16-16--16--18--16-16--15--17--15-15-15-15--15--17--15-15--|
d-x---x---x--x--x--x---x---x---x--x---x---x---x--x--x--x---x---x---x--x---|
a-14--16--14-14-14-14--14--16--14-14--13--15--13-13-13-13--13--15--13-13--|
d-------------------------------------------------------------------------|

e------------------------------------------------------------------|
b------------------------------------------------------------------|
g-13--15--13-13-13-13--13--15--13-13---12-12--13-13--15-15--17-17--|
d-x---x---x--x--x--x---x---x---x--x----x--x---x--x---x--x---x--x---|
a-11--13--11-11-11-11--11--13--11-11---10-10--11-11--13-13--15-15--|
d------------------------------------------------------------------|

____ - 0:42
e--------------------------------------|
b--------------------------------------|
g-11---13-13-14-14----9----14-14-13-13-|
d-x----x--x--x--x-----x----x--x--x--x--|
a-9----11-11-12-12----7----12-12-11-11-|
d--------------------------------------|

0:43 - 0:46
e---------------------------|
b---------------------------|
g---------------------------|
d-4----6---77777777-77-7777-|
a-4----6---77777777-77-7777-|
d-4----6---77777777-77-7777-|
[ Tab from: http://www.guitartabs.cc/tabs/p/protest_the_hero/turn_soonest_to_the_sea_tab.html ]
0:47 - ____
e-------------------------------------------------------------------------|
b-------------------------------------------------------------------------|
g-16--18--16-16-16-16--16--18--16-16--15--17--15-15-15-15--15--17--15-15--|
d-x---x---x--x--x--x---x---x---x--x---x---x---x--x--x--x---x---x---x--x---|
a-14--16--14-14-14-14--14--16--14-14--13--15--13-13-13-13--13--15--13-13--|
d-------------------------------------------------------------------------|

____ - 0:55
e-----------------------------------------------------------------|
b-----------------------------------------------------------------|
g-13--15--13-13-13-13--13--15--13-13---12-12--13-13--15-15--17-17-|
d-x---x---x--x--x--x---x---x---x--x----x--x---x--x---x--x---x--x--|
a-11--13--11-11-11-11--11--13--11-11---10-10--11-11--13-13--15-15-|
d-----------------------------------------------------------------|

0:56 - 1:04
e------------------------------------------------------------------|
b------------------------------------------------------------------|
g------------------------------------------------------------------|
d-4----4-4---9----14-14-13-13---4----6---77777777-77-7777--4--4--4-|
a-4----4-4---x----x--x--x--x----4----6---77777777-77-7777--4--4--4-|
d-4----4-4---7----12-12-11-11---4----6---77777777-77-7777--4--4--4-|


1:05 - 1:20						        (repeat 2x)
e-------------------------------------------13-16-18-16-15-----------------|
b----------------------------------------13----------------16--------------|
g----------------------------------10-13----------------------15-12--------|
d-000--0--0--000--000-0-0-000-0-0-----------------------------------13-000-|
a-000--0--0--000--000-0-0-000-0-0--------------------------------------000-|
d-000--0--0--000--000-0-0-000-0-0--------------------------------------000-|

1:21 - 1:26							 (repeat 2x)
e----------13-16-18-16-15-------------------------13-16-15-----------------|
b-------13----------------16-------------------14----------16--------------|
g-10-13----------------------15-12-------10-13----------------15-12--------|
d----------------------------------13-11----------------------------13-10--|
a--------------------------------------------------------------------------|
d--------------------------------------------------------------------------|

1:27 - 1:29
e------------------------------------|
b----------10-13-10------------------|
g-------10----------10---------------|
d----10----------------10-------<3>--|
a-12----------------------12---------|
d------------------------------------|-

								repeat 2x
e-------------13-16-------------13-16------------13-16------------13-16-|
b----------14----------------14-----------------------------------------|
g----10-13-------------10-13---------------10-13------------10-13-------|
d-11----------------11----------------8-11-------------8-11-------------|
a-----------------------------------------------------------------------|
d-----------------------------------------------------------------------|

e--------------------------------------------------------------------------|
b----------13-13-16----------13-13-16----------10-13-16----------10-13-16--|
g-------13----------------13----------------10----------------10-----------|
d-10-13-------------10-13----------------10----------------10--------------|
a-------------------------------------11----------------11-----------------|
d--------------------------------------------------------------------------|

Im stuck here. Sorry people its soo hard to really hear whats going on after
1:29. Ill keep working at it when I can. 
Check out the bands website www.protestthehero.com
they are bigger than jesus