Protest The Hero - These Colours Don't Run Chords & Tabs

 

These Colours Don't Run Chords & Tabs

Protest The Hero Chords & Tabs

Version: 1 Type: Tab 2 ratings
1 star 2 stars 3 stars 4 stars 5 stars
comments

These Colours Don't Run Tab

Song= These Colours Don't Run
Band= Protest the Hero
Album= Calculated Use Of Sound
Tabber= Dumpy The Destroyer

Hey guitar freaks noone has any guitar tabs for PTH so I figured I'd tab it 
since I did pretty good on my other ones. Rate it if you found it useful, 
thanks. BTW it's not to time so don't follow the spacing as a tempo guide and 
you can play it Standard tuning if you want, I just find the muted parts sound
better drop D.

x = muted
\ = slide
p = pull of
h = hammer on
^ = bend
~ = let ring
PM = palm mute wherever indicated
* = tremolo pick


INTRO PART 1 
    
Gtr 1
e|------------------------------------------------------------------------|
b|------------------------------------------------------------------------|
g|------------------------------------------------------------------------|
D|-x-x--x--x-x-x--x--x-x-x--x--x-x-x-x------------------------------------|
A|-x-x--x--x-x-x--x--x-x-x--x--x-x-x-x------------------------------------|
D|-x-x--x--x-x-x--x--x-x-x--x--x-x-x-x------------------------------------|
e|------------------------------------------------------------------------|
b|------------------------------------------------------------------------|
g|------------------------------------------------------------------------|
D|-x-x--x--x-x-x--x--x-x-x--x--x-x-x-x------------------------------------|
A|-x-x--x--x-x-x--x--x-x-x--x--x-x-x-x------------------------------------|
D|-x-x--x--x-x-x--x--x-x-x--x--x-x-x-x------------------------------------|

e|------------------------------------------------------------------------|
b|------------------------------------------------------------------------|
g|-----------------------------10--10-------------------------------------|
D|-x-x--x--x-x-x--x--x-x-x--x--x---x--------------------------------------|
A|-x-x--x--x-x-x--x--x-x-x--x--8---8--------------------------------------|
D|-x-x--x--x-x-x--x--x-x-x--x---------------------------------------------|

e|------------------------------------------------------------------------|
b|------------------------------------------------------------------------|
g|-----------------------------10--10-------------------------------------|
D|-x-x--x--x-x-x--x--x-x-x--x--x---x--------------------------------------|
A|-x-x--x--x-x-x--x--x-x-x--x--8---8--------------------------------------|
D|-x-x--x--x-x-x--x--x-x-x--x---------------------------------------------|

Gtr 2
e|------------------------------------------------------------------------|
b|----------------------------------------------------------------------o-|
g|------------------------------------------------------------------------|
D|------------------------------------------------------------------------|
A|----------------------------------------------------------------------o-|
D|------------------------------------------------------------------------|


INTRO PART 2

Gtr 1
e|------------------------------------------------------------------------|
b|------------------------------------------------------------------------|
g|-10-10-10-10-10-10-11-11-11-11-11-11-10-10-10-10-10-10-x-x-x-x-x-x------|
D|-x--x--x--x--x--x--x--x--x--x--x--x--x--x--x--x--x--x--x-x-x-x-x-x------|
A|-8--8--8--8--8--8--9--9--9--9--9--9--8--8--8--8--8--8--x-x-x-x-x-x------|
D|------------------------------------------------------------------------|

e|------------------------------------------------------------------------|
b|------------------------------------------------------------------------|
g|-10-10-10-10-10-10-11-11-11-11-11-11-10----10------\--------------------|
D|-x--x--x--x--x--x--x--x--x--x--x--x--x-----x-------\--------------------|
A|-8--8--8--8--8--8--9--9--9--9--9--9--8-----8-------\--------------------|
D|------------------------------------------------------------------------|


Gtr 2
e|------------------------------------------------------------------------|
b|------------------------------------------------------------------------|
g|-10-10-10-10-10-10-11-11-11-11-11-11-10-10-10-10-10-10-x-x-x-x-x-x------|
D|-x--x--x--x--x--x--x--x--x--x--x--x--x--x--x--x--x--x--x-x-x-x-x-x------|
A|-8--8--8--8--8--8--9--9--9--9--9--9--8--8--8--8--8--8--x-x-x-x-x-x------|
D|------------------------------------------------------------------------|

e|------------------------------------------------------------------------|
b|---------------------------------------11-11--11-11\--------------------|
g|-10-10-10-10-10-10-11-11-11-11-11-11---10-10--10-10\--------------------|
D|-x--x--x--x--x--x--x--x--x--x--x--x----------------\--------------------|
A|-8--8--8--8--8--8--9--9--9--9--9--9-------------------------------------|
D|------------------------------------------------------------------------|


VERSE PART 1

Gtr 1
e|------------------------------------------------------------------------|
b|------------------------------------------------------------------------|
g|------------------------------------------------------------------------|
D|-x-x--x--x-x-x--x--x-x-x--x--x-x-x-x------------------------------------|
A|-x-x--x--x-x-x--x--x-x-x--x--x-x-x-x------------------------------------|
D|-x-x--x--x-x-x--x--x-x-x--x--x-x-x-x------------------------------------|

e|------------------------------------------------------------------------|
b|------------------------------------------------------------------------|
g|-----------------------------10----10-----------------------------------|
D|-x-x--x--x-x-x--x--x-x-x--x--x-----x------------------------------------|
A|-x-x--x--x-x-x--x--x-x-x--x--8-----8------------------------------------|
D|-x-x--x--x-x-x--x--x-x-x--x---------------------------------------------|

Gtr 2
e|------------------------------------------------------------------------|
b|------------------------------------------------------------------------|
g|------------------------------------------------------------------------|
D|------------------------------------------------------------------------|
A|------------------------------------------------------------------------|
D|------------------------------------------------------------------------|

e|------------------------------------------------------------------------|
b|------------------------------11-11--11-11------------------------------|
g|------------------------------10-10--10-10------------------------------|
D|------------------------------------------------------------------------|
A|------------------------------------------------------------------------|
D|------------------------------------------------------------------------|


VERSE PART 2

Gtr 1
e|------------------------------------------------------------------------|
b|------------------------------------------------------------------------|
g|-10-10-10-10-10-10-3-3-3-3-3-3-6-6-6-6-6-6-6-6-6-6-6-6-6-6--------------|
D|-x--x--x--x--x--x--x-x-x-x-x-x-x-x-x-x-x-x-x-x-x-x-x-x-x-x--------------|
A|-8--8--8--8--8--8--1-1-1-1-1-1-4-4-4-4-4-4-4-4-4-4-4-4-4-4--------------|
D|------------------------------------------------------------------------|

Gtr 2
e|------------------------------------------------------------------------|
b|------------------------------------------------------------------------|
g|-10-10-10-10-10-10-3-3-3-3-3-3-6-6-6-6-6-6-6-6-6-6-6-6-6-6--------------|
D|-x--x--x--x--x--x--x-x-x-x-x-x-x-x-x-x-x-x-x-x-x-x-x-x-x-x--------------|
A|-8--8--8--8--8--8--1-1-1-1-1-1-4-4-4-4-4-4-4-4-4-4-4-4-4-4--------------|
D|------------------------------------------------------------------------|



BRIDGE

Gtr 1
e|------------------------------------------------------------------------|
b|------------------------------------------------------------------------|
g|-------2-2-2-3-3-3-5-5-5------------------------------------------------|
D|-5-5-5-x-x-x-x-x-x-x-x-x------------------------------------------------|
A|-x-x-x-0-0-0-1-1-1-3-3-3------------------------------------------------|
D|-5-5-5------------------------------------------------------------------|

Gtr 2
e|------------------------------------------------------------------------|
b|------------------------------------------------------------------------|
g|-------2-2-2-3-3-3-5-5-5------------------------------------------------|
D|-5-5-5-x-x-x-x-x-x-x-x-x------------------------------------------------|
A|-x-x-x-0-0-0-1-1-1-3-3-3------------------------------------------------|
D|-5-5-5------------------------------------------------------------------|


CHORUS   

Gtr 1
e|------------------------------------------------------------------------|
b|------------------------------------------------------------------------|
g|-6-6-6-6-6-6-6-6-6-6-6-6------------------------------------------------|
D|-6-6-6-6-6-6-6-6-6-6-6-6-4-4-4-4-4-4-7-7-7-7-7-7------------------------|
A|-4-4-4-4-4-4-4-4-4-4-4-4-4-4-4-4-4-4-7-7-7-7-7-7------------------------|
D|-------------------------4-4-4-4-4-4-7-7-7-7-7-7------------------------|
                                       ====PM=====
e|------------------------------------------------------------------------|
b|------------------------------------------------------------------------|
g|-6-6-6-6-6-6-6-6-6-6-6-6------------------------------------------------|
D|-6-6-6-6-6-6-6-6-6-6-6-6-4-4-4-4-4-4-7-7-7-7-7-7------------------------|
A|-4-4-4-4-4-4-4-4-4-4-4-4-4-4-4-4-4-4-7-7-7-7-7-7------------------------|
D|-------------------------4-4-4-4-4-4-7-7-7-7-7-7------------------------|
                                       ====PM=====

Gtr 2
e|------------------------------------------------------------------------|
b|------------------------------------------------------------------------|
g|-6-6-6-6-6-6-6-6-6-6-6-6------------------------------------------------|
D|-6-6-6-6-6-6-6-6-6-6-6-6-4-4-4-4-4-4-7-7-7-7-7-7------------------------|
A|-4-4-4-4-4-4-4-4-4-4-4-4-4-4-4-4-4-4-7-7-7-7-7-7------------------------|
D|-------------------------4-4-4-4-4-4-7-7-7-7-7-7------------------------|
                                       ====PM=====
e|------------------------------------------------------------------------|
b|------------------------------------------------------------------------|
g|-6-6-6-6-6-6-6-6-6-6-6-6------------------------------------------------|
D|-6-6-6-6-6-6-6-6-6-6-6-6-4-4-4-4-4-4-7-7-7-7-7-7------------------------|
A|-4-4-4-4-4-4-4-4-4-4-4-4-4-4-4-4-4-4-7-7-7-7-7-7------------------------|
D|-------------------------4-4-4-4-4-4-7-7-7-7-7-7------------------------|
                                       ====PM=====

BUILD UP

Gtr 1
e|------------------------------------------------------------------------|
b|------------------------------------------------------------------------|
g|------------------------------------------------------------------------|
D|--------4^--3~----4~---6~----7~-----------------------------------------|
A|-1~---------------------------------------------------------------------|
D|------------------------------------------------------------------------|

Gtr 2
e|------------------------------------------------------------------------|
b|------------------------------------------------------------------------|
g|------------------------------------------------------------------------|
D|------------------------------------------------------------------------|
A|------------------------------------------------------------------------|
D|------------------------------------------------------------------------|

Gtr 1
e|------------------------------------------------------------------------|
b|------------------------------------------------------------------------|
g|---------8---------------8---------------8---------------8--------------|
D|-8-10-11---11-10-8-10-11---11-10-8-10-11---11-10-8-10-11---11-10--------|
A|------------------------------------------------------------------------|
D|------------------------------------------------------------------------|
[ Tab from: http://www.guitartabs.cc/tabs/p/protest_the_hero/these_colours_dont_run_tab.html ]
e|------------------------------------------------------------------------|
b|------------------------------------------------------------------------|
g|---------8---------------8---------------8---------------8--------------|
D|-8-10-11---11-10-8-10-11---11-10-8-10-11---11-10-8-10-11---11-10--------|
A|------------------------------------------------------------------------|
D|------------------------------------------------------------------------|

Gtr 2
e|------------------------------------------------------------------------|
b|------------------------------------------------------------------------|
g|-10----10----10------------10----10----10-------------------------------|
D|-10----10----10---8--8--8--10----10----10---8--8--8---------------------|
A|-8-----8-----8----8--8--8--8-----8-----8----8--8--8---------------------|
D|------------------8--8--8-------------------8--8--8---------------------|

Gtr 1
e|------------------------------------------------------------------------|
b|------------------------------------------------------------------------|
g|----------11----------------11----------------11----------------11------|
D|10-12-13----13-12-10-12-13----13-12-10-12-13----13-12-10-12-13----13-12-|
A|------------------------------------------------------------------------|
D|------------------------------------------------------------------------|

e|------------------------------------------------------------------------|
b|------------------------------------------------------------------------|
g|----------11----------------11----------------11----------------11------|
D|10-12-13----13-12-10-12-13----13-12-10-12-13----13-12-10-12-13----13-12-|
A|------------------------------------------------------------------------|
D|------------------------------------------------------------------------|

Gtr 2
e|------------------------------------------------------------------------|
b|------------------------------------------------------------------------|
g|-10----10----10------------10----10----10-------------------------------|
D|-10----10----10---8--8--8--10----10----10---8--8--8---------------------|
A|-8-----8-----8----8--8--8--8-----8-----8----8--8--8---------------------|
D|------------------8--8--8-------------------8--8--8---------------------|


INTERLUDE 

Gtr 1
e|------------------------------------------------------------------------|
b|------------------------------------------------------------------------|
g|------------------------------------------------------------------------|
D|-guitar 1 improvises with octaves here and really has no set melody-----|
A|------------------------------------------------------------------------|
D|------------------------------------------------------------------------|

Gtr 2
e|------------------------------------------------------------------------|
b|------------------------------------------------------------------------|
g|-10-10-10-10-10-10-10-10-10-10-10-10-8--8--8--8--8--8--8--8--8--8--8--8-|
D|-x--x--x--x--x--x--x--x--x--x--x--x--x--x--x--x--x--x--x--x--x--x--x--x-|
A|-8--8--8--8--8--8--8--8--8--8--8--8--6--6--6--6--6--6--6--6--6--6--6--6-|
D|------------------------------------------------------------------------|

e|------------------------------------------------------------------------|
b|------------------------------------------------------------------------|
g|-6--6--6--6--6--6--6--6--6--6--6--6--3--3--3--3--3--3--2--2--2--2--2--2-|
D|-x--x--x--x--x--x--x--x--x--x--x--x--x--x--x--x--x--x--x--x--x--x--x--x-|
A|-4--4--4--4--4--4--4--4--4--4--4--4--1--1--1--1--1--1--0--0--0--0--0--0-|
D|------------------------------------------------------------------------|

e|------------------------------------------------------------------------|
b|------------------------------------------------------------------------|
g|-10-10-10-10-10-10-8--8--8--8--8--8--6--6--6--6--6--6--3--3--3--2--2--2-|
D|-x--x--x--x--x--x--x--x--x--x--x--x--x--x--x--x--x--x--x--x--x--x--x--x-|
A|-8--8--8--8--8--8--6--6--6--6--6--6--4--4--4--4--4--4--1--1--1--0--0--0-|
D|------------------------------------------------------------------------|


SOLO

Gtr 1
e|------------------------------------------------------------------------|
b|-11^~-------------------------------------------------------------------|
g|-x----------------------------------------------------------------------|
D|-8^~--------------------------------------------------------------------|
A|------------------------------------------------------------------------|
D|------------------------------------------------------------------------|


e|------------------------------------------------------------------------|
b|-11-11-x-x--13-13-x-x--14-14-x-x--16-16---------------------------------|
g|-x--x--x-x--x--x--x-x--x--x--x-x--x--x----------------------------------|
D|-8--8--x-x--10-10-x-x--11-11-x-x--13-13---------------------------------|
A|------------------------------------------------------------------------|
D|------------------------------------------------------------------------|

e|------------------------------------------------------------------------|
b|-18-17-15-17-18-17-15-17-18-17-15-17-18-17-15-17------------------------|
g|------------------------------------------------------------------------|
D|------------------------------------------------------------------------|
A|------------------------------------------------------------------------|
D|------------------------------------------------------------------------|
  (watch out here it looks the same but it's acutally the next string)
e|------------------------------------------------------------------------|
b|------------------------------------------------------------------------|
g|-18-17-15-17-18-17-15-17-18-17-15-17-18-17-15-17------------------------|
D|------------------------------------------------------------------------|
A|------------------------------------------------------------------------|
D|------------------------------------------------------------------------|

e|------------------------------------------------------------------------|
b|-----------------15*---15*-17*-15* 17* 18* 17* 18*\---------------------|
g|-15*-17*-15*-17*----17*-------------------------------------------------|
D|------------------------------------------------------------------------|
A|------------------------------------------------------------------------|
D|------------------------------------------------------------------------|

Gtr 2
e|------------------------------------------------------------------------|
b|------------------------------------------------------------------------|
g|-10-10-10-10-10-10-3-3-3-3-3-3-6-6-6-6-6-6-6-6-6-6-6-6-6-6--------------|
D|-x--x--x--x--x--x--x-x-x-x-x-x-x-x-x-x-x-x-x-x-x-x-x-x-x-x--------------|
A|-8--8--8--8--8--8--1-1-1-1-1-1-4-4-4-4-4-4-4-4-4-4-4-4-4-4--------------|
D|------------------------------------------------------------------------|

e|------------------------------------------------------------------------|
b|------------------------------------------------------------------------|
g|-10-10-10-10-10-10-3-3-3-3-3-3-6-6-6-6-6-6-6-6-6-6-6-6-6-6--------------|
D|-x--x--x--x--x--x--x-x-x-x-x-x-x-x-x-x-x-x-x-x-x-x-x-x-x-x--------------|
A|-8--8--8--8--8--8--1-1-1-1-1-1-4-4-4-4-4-4-4-4-4-4-4-4-4-4--------------|
D|------------------------------------------------------------------------|

e|------------------------------------------------------------------------|
b|------------------------------------------------------------------------|
g|-10-10-10-10-10-10-3-3-3-3-3-3-6-6-6-6-6-6-6-6-6-6-6-6-6-6--------------|
D|-x--x--x--x--x--x--x-x-x-x-x-x-x-x-x-x-x-x-x-x-x-x-x-x-x-x--------------|
A|-8--8--8--8--8--8--1-1-1-1-1-1-4-4-4-4-4-4-4-4-4-4-4-4-4-4--------------|
D|------------------------------------------------------------------------|

e|------------------------------------------------------------------------|
b|------------------------------------------------------------------------|
g|-------2-2-2-3-3-3-5-5-5------------------------------------------------|
D|-5-5-5-x-x-x-x-x-x-x-x-x------------------------------------------------|
A|-x-x-x-0-0-0-1-1-1-3-3-3------------------------------------------------|
D|-5-5-5------------------------------------------------------------------|


BRIDGE 2

Gtr 1
e|------------------------------------------------------------------------|
b|------------------------------------------------------------------------|
g|------------------------------------------------------------------------|
D|-------------------7-7-7-7-7-7------------------------7-7-7-7-7-7-------|
A|-8~\-------4~\-----7-7-7-7-7-7-----8~--9~-11~---4~\---7-7-7-7-7-7-------|
D|-------------------7-7-7-7-7-7------------------------7-7-7-7-7-7-------|
                     ====PM=====                        ====PM=====

Gtr 2
e|------------------------------------------------------------------------|
b|--6---6--------------------------6---6--6-------------------------------|
g|---6-6--------------------------6-----6---------------------------------|
D|----6---6--6--6-6-----------------6-6--6---6-6--6--6--------------------|
A|-4-----4--6-6--6-6-------------4---4-----4--6--6-6--6-------------------|
D|---------6---6-----7-7-7-7-7-7------------6---6---6---7-7-7-7-7-7-------|
   This is basically random picking of the Chorus chords.


OUTRO

Gtr 1
e|--same octave improvisation thing here if you want to play it-----------|
b|--the keep in the same F minor pentatonic scale and play chords---------|
g|--in this shape:---c----------------------------------------------------|
D|-------------------x----------------------------------------------------|
A|-------------------a----------------------------------------------------|
D|------------------------------------------------------------------------|

Gtr 2
e|------------------------------------------------------------------------|
b|------------------------------------------------------------------------|
g|-6-6-6-6-6-6-6-6-6-6-6-6------------------------------------------------|
D|-6-6-6-6-6-6-6-6-6-6-6-6-4-4-4-4-4-4-7-7-7-7-7-7------------------------|
A|-4-4-4-4-4-4-4-4-4-4-4-4-4-4-4-4-4-4-7-7-7-7-7-7------------------------|
D|-------------------------4-4-4-4-4-4-7-7-7-7-7-7------------------------|
                                       ====PM=====
e|------------------------------------------------------------------------|
b|------------------------------------------------------------------------|
g|-6-6-6-6-6-6-6-6-6-6-6-6------------------------------------------------|
D|-6-6-6-6-6-6-6-6-6-6-6-6-4-4-4-4-4-4-7-7-7-7-7-7------------------------|
A|-4-4-4-4-4-4-4-4-4-4-4-4-4-4-4-4-4-4-7-7-7-7-7-7------------------------|
D|-------------------------4-4-4-4-4-4-7-7-7-7-7-7------------------------|
                                       ====PM=====
e|------------------------------------------------------------------------|
b|------------------------------------------------------------------------|
g|-6-6-6-6-6-6-6-6-6-6-6-6------------------------------------------------|
D|-6-6-6-6-6-6-6-6-6-6-6-6-4-4-4-4-4-4-7-7-7-7-7-7------------------------|
A|-4-4-4-4-4-4-4-4-4-4-4-4-4-4-4-4-4-4-7-7-7-7-7-7------------------------|
D|-------------------------4-4-4-4-4-4-7-7-7-7-7-7------------------------|
                                       ====PM=====
e|------------------------------------------------------------------------|
b|------------------------------------------------------------------------|
g|-6-6-6-6-6-6-6-6-6-6-6-6-----------------------------10~----------------|
D|-6-6-6-6-6-6-6-6-6-6-6-6-4-4-4-4-4-4-7-7-7-7-7-------x------------------|
A|-4-4-4-4-4-4-4-4-4-4-4-4-4-4-4-4-4-4-7-7-7-7-7-------8~-----------------|
D|-------------------------4-4-4-4-4-4-7-7-7-7-7--------------------------|
                                       ====PM===


ORDER:
Intro part 1
Intro part 2 x2
Verse part 1 x2
Verse part 2 x4
Verse part 1 x2
Verse part 2 x3
Bridge
Chorus
Build up 
Interlude
Solo
Outro

                         ∂џмрч †нє ∂єς†ґΩчєг		
Comments