Protest The Hero - These Colours Don't Run Chords & Tabs

 

These Colours Don't Run Chords & Tabs

Protest The Hero Chords & Tabs

Version: 1 Type: Bass Tab

These Colours Don't Run Bass Tab

   
Artist: Protest The Hero
Song: These Colours Don't Run
Album: A Calculated Use Of Sound (2003)
Tabbed by Alex Morris
Tuning: 1/2 Step Down

No bass in intro

0:20
Gb|-------------------------------------------|
Db|-------------------------------------------|
Ab|22-2-0-22-2-0-22-22-------22-2-0-22-2------|
Eb|--------------------0-0-0--------------0--0|x2

0:30 "it's so engregious, so conspicuously wrong..."
Gb|---------------------------|
Db|---------------------------|
Ab|2~p1p0---------------------|
Eb|---------------------0--0--|x2

0:42 "hypocracy, double standard..."
Gb|-----------------------------------------------|
Db|---------------------------5-4-2---------------|
Ab|2-222------------------2-4-------4-------------|
Eb|------0-000-3-333-3-333------------3-333-3-333-|

Gb|------------------------------------------------|
Db|------------------------------------------------|
Ab|2-222-------------------2-222-------------------|
Eb|------0-000-3-333-3-333-------0-000-3-333-3-333-|

0:54 "1998, the clinton administration..."
Gb|--------------------------------|
Db|--------------------------------|
Ab|2~p1p0-----------7-7-7-7-7-7-7-7|
Eb|-----------------0-0-0-0-0-0-0-0|

1:04
Gb|-----------------------------------------------|
Db|---------------------------5-4-2---------------|
Ab|2-222------------------2-4-------4-------------|
Eb|------0-000-3-333-3-333------------3-333-3-333-|

Gb|------------------------------------------------|
Db|------------------------------------------------|
Ab|2-222-------------------------------------------|
Eb|------0-000-3-333-3-333--0-000-2-222-3-333-5-555|

1:16 "bombings won't justify bombings..."
Gb|----------------------------------------------|
Db|----------------------------------------------|
Ab|5-5555-555-5-5555-555-------------------------|
Eb|----------------------3-3333-333--6-6-6-6-6-6-|x2

1:27 "terrorism as defined by official US documents..."
Gb|----------------------------------------|
Db|--------------------------54754---------|
Ab|2-222-2-222---------5-0-2------754-0-5-0|
Eb|------------3-333-5---------------------|

Gb|-----------------------------------|
Db|--54754----------------------------|
Ab|2------754-0-5-0-2-222-545754-2-0-5|
Eb|-----------------------------------|

1:38
Gb|-------------------|
Db|-------------------|
Ab|2-2-2-----2-2-2----|
Eb|------000-------000|
[ Tab from: http://www.guitartabs.cc/tabs/p/protest_the_hero/these_colours_dont_run_btab.html ]
1:45
Gb|-------------------------------------------|
Db|-------------------------------------------|
Ab|2-222-2-222-2-222-----2-222-2-222-2-222----|
Eb|------------------000-------------------000|

1:50 "the rocket's red glare..."
Gb|-----------------------------------------------------|
Db|-----------------------------------------------------|
Ab|5-5555-5-5555-5-5555-5-5-5--4444-4-4444-4-4444-4-4-4-|
Eb|-----------------------------------------------------|

Gb|-------------------------------------------------|
Db|-------------------------------------------------|
Ab|3-3333-3-3333-3-3333-333-------------------------|
Eb|--------------------------3-3-3-3-3-3-3-3-3-3-3-3|

2:02 "(will not cease!) although by definition..."
Gb|------------------------------------------------|
Db|------------------------------------------------|
Ab|2-2-2-2-2-2--0-0-0-0-0-0------------------------|
Eb|-------------------------3-3-3-3-3-3-3-3-3-3-3-3|

2:08 (play softly)
Gb|--------------------------------------------------|  |-|
Db|--------------------------------------------------|  |-|
Ab|2-2-22-2-2-22-2-2-222222-2-2-22-2-2-22---2-2---2-2|  |2|
Eb|---------------------------------------0-----0----|x2|-|

2:19 (guitar solo)
Gb|-------------------------------------------------|
Db|-------------------------------------------------|
Ab|2-222-------------------2-222--------------------|
Eb|------0-000-3-333-3-333-------0-000-3-333--3-333-|

Gb|--------------------------------------------------|
Db|--------------------------------------------------|
Ab|2-222---------------------------------------------|
Eb|------0-000-3-333-3-333---0-000-2-222-3-333-5-555-|

2:30 "bombings won't justify bombings"
Gb|----2h4p2-0---------------7h9-3-3-3-3-0-2-|
Db|------------42-4-5------------------------|
Ab|5~----------------------------------------|
Eb|------------------3-3-3-3-----------------|

Gb|---42-0---------------------------|
Db|-------42-4-5---------------------|
Ab|5~--------------------------------|
Eb|-------------3~-3-3-3--6-6-6-6-6-6|

2:43 "bombings won't justify bombings..."
Gb|-------------------------------------------------|
Db|-------------------------------------------------|
Ab|5-5555-555-5-5555-555----------------------------|
Eb|----------------------3-3333-333-6-6-6-6-6-6-6---|x4

End on
Eb|0~|

i'm not sure if this is 100% accurate, probably not. feel free to copy this tab and fix 
errors and repost if you want.

BUY KEZIA BY PROTEST THE HERO

R.I.P. THE FULLBLAST