Prophet - Sound Of A Broken Heart Chords & Tabs

 

Sound Of A Broken Heart Chords & Tabs

Prophet Chords & Tabs

Version: 1 Type: Tab 0 ratings
1 star 2 stars 3 stars 4 stars 5 stars
comments

Sound Of A Broken Heart Tab

   
-------------------------------------------------------------------------------
                             SOUND OF A BROKEN HEART - Prophet
-------------------------------------------------------------------------------
Tabbed by:beanboy (inspired by AORGUITAR1 from Youtube!)        
Band - http://heavyharmonies.com/cgi-bin/band.cgi?BandNum=234
Album - http://heavyharmonies.com/cgi-bin/glamcd.cgi?BandNum=234&CDName=Cycle+of+the+Moon
Video - http://www.youtube.com/watch?v=ceM-RDntk2Y


Tuning: Standard

Intro

e|---------------------------------------------------------------------------|
B|-----2------------2------2--------22---------------------------------------|
G|-----2------------2------2--------22---------------------------------------|
D|-4-5-2-4--4-5-7-7-2--4-5-2-4--9-7-22---------------------------------------|
A|-2-2-0-2--2-2-5-4-0--2-2-0-2--7-5-00---------------------------------------|
E|---------------------------------------------------------------------------|

Verse

e|---------------------------------------------------------------------------|
B|----3---3-----3---3-----3---3----------------------------------------------|
G|---2---2-----2---2-----2---2-----------------------------------------------|
D|--4---5-----4---5-----4---5------------------------------------------------|
A|-5---------5---------5-----------------------------------------------------|
E|---------------------------------------------------------------------------|

Chorus

e|---------------------------------------------------------------------------|
B|-------------22---------------22-------------------------------------------|
G|-------------22---------------22-------------------------------------------|
D|-4-5-7-7-9---22---4-5-7-7-9-7-22-------------------------------------------|
A|-2-2-4-5-7---00---2-2-4-5-7-5-00-------------------------------------------|
E|-----------0---------------------------------------------------------------|

Solo
[ Tab from: http://www.guitartabs.cc/tabs/p/prophet/sound_of_a_broken_heart_tab.html ]
e|---------------------------------------------------------------------------|
B|-----14b16r14--------------------------------------------------------------|
G|--14~---------14~-12-11-9~-------------------------------------------------|
D|---------------------------------------------------------------------------|
A|---------------------------------------------------------------------------|
E|---------------------------------------------------------------------------|

Verse

e|-----------------------------------------2-3-------------------------------|
B|----3---3-----3---3-----3---3------------2-3-2-2---------------------------|
G|---2---2-----2---2-----2---2------0-2~---3-4-2-2---------------------------|
D|--4---5-----4---5-----4---5---2/4--------4-5-2-2---------------------------|
A|-5---------5---------5-------------------4-5-0-0---------------------------|
E|-----------------------------------------2-3-------------------------------|

Chorus 2

e|-------------------------------------------------------15b17 ~--------------|
B|-------------22-------------------------------------------------------------|
G|-------------22-------------------------------------------------------------|
D|-4-5-7-7-9---22---4-5-7-7-9-7-77--4-5-7-7-9-7-77----------------------------|
A|-2-2-4-5-7---00---2-2-4-5-7-5-44--2-2-4-5-7-5-44--2--0----------------------|
E|-----------0----------------------------------------------------------------|

Middle 8

e|----------------------------------------------------------------------------|
B|-----------------------------2----------------------------------------------|
G|-------------ah7---------9-7-2----------------------------------------------|
D|---------------ah7-------9-7-2----------------------------------------------|
A|--7--5--7--5-------7--5--7-5-0----------------------------------------------|
E|--5--3--5--3-------5--3-----------------------------------------------------|


Solo over Chorus 2

Chorus till end


************************************

| /   slide up
| \   slide down
| h   hammer-on
| p   pull-off
| ~   vibrato
| +   harmonic
| x   Mute note
| b   Bend
| pb  Pre-bend
| br  Bend release
| pbr Pre-bend release
| brb Bend release bend
| ah  Artificial harmonic


************************************
Comments