Propagandhi - Who Will Help Me Bake This Bread Chords & Tabs

 

Who Will Help Me Bake This Bread Chords & Tabs

Propagandhi Chords & Tabs

Version: 1 Type: Tab 0 ratings
1 star 2 stars 3 stars 4 stars 5 stars
comments

Who Will Help Me Bake This Bread Tab

PROPAGANDHI-WHO WILL HELP ME BAKE THIS BREAD?
Tabbed By Ben H (PunkAsPhuck)

Part 1
e|---------------------------------------------------------------------------| 
B|-------6-5---------6-5--------6-5------------------------------------------| 
G|-------5-5---------5-5--------5-4------------------------------------------| 
D|-2-2---3-2---x2-2--3-2--------3-2------------------------------------------| 
A|-0-0---------x0-0-------x5-5-------x5-5--x3-3------------------------------| 
E|------------------------x3-3-------x2-2--x1-1------------------------------| 

Part 2 
e|---------------------------------------------------------------------------| 
B|------------------x6-6-6-6-------------------------------------------------| 
G|------------------x5-5-5-5-------------------------------------------------| 
D|-x2-2---x2-2------x3-3-3-3-------------------------------------------------| 
A|-x0-0---x0-0---------------------------------------------------------------| 
E|---------------------------------------------------------------------------| 
[ Tab from: http://www.guitartabs.cc/tabs/p/propagandhi/who_will_help_me_bake_this_bread_tab.html ]
Part 3 
e|---------------------------------------------------------------------------| 
B|---------------------------------------------------------------------------| 
G|--5-5-5-5-x5-5-5-5----x7-7-7-7---x9-9-9-9----------------------------------| 
D|--5-5-5-5-x5-5-5-5----x7-7-7-7---x9-9-9-9----------------------------------| 
A|--3-3-3-3-x3-3-3-3----x5-5-5-5---x7-7-7-7----------------------------------| 
E|---------------------------------------------------------------------------| 

Part 4 
e|---------------------------------------------------------------------------| 
B|---------------------------------------------------------------------------| 
G|--x5-5-5-5-----------------------x5-5-5-5----------------------------------| 
D|--x5-5-5-5--x5-5-5-5--x3-3-3-3---x5-5-5-5----------------------------------| 
A|--x3-3-3-3--x5-5-5-5--x3-3-3-3---x3-3-3-3----------------------------------| 
E|------------x3-3-3-3--x1-1-1-1---------------------------------------------| 

part 5
e|---------------------------------------------------------------------------| 
B|------------------x6-6-6-6------------x6-6---------------------------------| 
G|------------------x5-5-5-5------------x5-5----x7-7-------------------------| 
D|-x2-2---x2-2------x3-3-3-3---x2-2-----x3-4----x7-7-------------------------| 
A|-x0-0---x0-0-----------------x0-0-------------x5-5-------------------------| 
E|---------------------------------------------------------------------------| 

Order:

Part 1 x4
Part 2 x4 
Part 1 x2
Part 2 x4
Part 3 x1
Part 2 x2 
Part 3 x1
Part 2 x4 
Part 1 x7
Part 4 x4
Part 1 x2 
Part 2 x4
Part 3 x1
Part 2 x2 
Part 3 x1
Part 5 x2
Comments