Propagandhi - This Might Be Satire Chords & Tabs

 

This Might Be Satire Chords & Tabs

Propagandhi Chords & Tabs

Version: 1 Type: Tab 0 ratings
1 star 2 stars 3 stars 4 stars 5 stars
comments

This Might Be Satire Tab

   
INTRO: 
e|-------------------------------------------------| 
B|-------------------------------------------------| 
G|-7-------------7-----6h7p6---------------7---7---| 
D|-7-------------7---7-------5-------------7---7-7-| 
A|-5-5-5-5-5-5-5-5-5-7-------5-------------5-5-5-7-| 
E|---------------------------3-3-3-3-3-3-3---------| 

e|-------------------------------------------------| 
B|-------------------------------------------------| 
G|-7-------------7-----6h7p6---------------7---7---| 
D|-7-------------7---7-------5-------------7---7-7-| 
A|-5-5-5-5-5-5-5-5-5-7-------5-------------5-5-5-7-| 
E|---------------------------3-3-3-3-3-3-3---------| 

VERSE:
I wanna chew my bubblin' gum with you. 
e|-------------------------------------------------| 
B|-------------------------------------------------| 
G|-7-------------7-----6h7p6---------------7---7---| 
D|-7-------------7---7-------5-------------7---7-7-| 
A|-5-5-5-5-5-5-5-5-5-7-------5-------------5-5-5-7-| 
E|---------------------------3-3-3-3-3-3-3---------| 

And I want to walk you home from school. 
e|-------------------------------------------------| 
B|-------------------------------------------------| 
G|-7-------------7-----6h7p6---------------7---7---| 
D|-7-------------7---7-------5-------------7---7-7-| 
A|-5-5-5-5-5-5-5-5-5-7-------5-------------5-5-5-7-| 
E|---------------------------3-3-3-3-3-3-3---------| 

And I want to carry your books to every class. 
e|-------------------------------------------------| 
B|-------------------------------------------------| 
G|-7-------------7-----6h7p6---------------7---7---| 
D|-7-------------7---7-------5-------------7---7-7-| 
A|-5-5-5-5-5-5-5-5-5-7-------5-------------5-5-5-7-| 
E|---------------------------3-3-3-3-3-3-3---------| 

And I want to fuck you up the ass (not). 
e|-------------------------------------------------| 
B|-------------------------------------------------| 
G|-7-------------7-----6h7p6---------------7---7---| 
D|-7-------------7---7-------5-------------7---7-7-| 
A|-5-5-5-5-5-5-5-5-5-7-------5-------------5-5-5-7-| 
E|---------------------------3-3-3-3-3-3-3---------| 

PRE-CHORUS: 
Oh girl, you know it's true how much I love you. 
e|-------------------------------------------| 
B|-------------------------------------------| 
G|-------------------------------------------| 
D|-7----------7----7----5----------5----5----| 
A|-7----------7----7----5----------5----5----| 
E|-5-5*-5*-5*-5-5*-5-5*-3-3*-3*-3*-3-3*-3-3*-| 

I want to sing it across the land. Won't you hold my hand
e|-----------------------------------| 
B|-----------------------------------| 
G|-----------------------------------| 
D|-7----------7----7----5----------7-| 
A|-7----------7----7----5----------7-| 
E|-5-5*-5*-5*-5-5*-5-5*-3-3*-3*-3*-5-| 

CHORUS: 
 Won't you hold my hand? Won't you hold my hand?
e|---------------------------------| 
B|---------------------------------| 
G|-7-7-7-7-7-7-7-7-----------------| 
D|-7-7-7-7-7-7-7-7-5-5-5-5-5-5-5-5-| 
A|-5-5-5-5-5-5-5-5-5-5-5-5-5-5-5-5-| 
E|-----------------3-3-3-3-3-3-3-3-| 
[ Tab from: http://www.guitartabs.cc/tabs/p/propagandhi/this_might_be_satire_tab.html ]
 Won't you hold my hand? Won't you hold my hand?
e|---------------------------------| 
B|---------------------------------| 
G|-7-7-7-7-7-7-7-7-----------------| 
D|-7-7-7-7-7-7-7-7-7-7-7-7-7-7-7-7-| 
A|-5-5-5-5-5-5-5-5-7-7-7-7-7-7-7-7-| 
E|-----------------5-5-5-5-5-5-5-5-| 

BRIDGE: 
She tells me that she loves me, now I'm gonna tell her that I love her. 
e|---------------------------------------------| 
B|---------------------------------------------| 
G|-----7------------11-------12----------14----| 
D|---7---7---9---11-------12----12----14----14-| 
A|-5-------7---9-------10----------12----------| 
E|---------------------------------------------| 

She tells me that she loves me. Now I'm gonna try and fuck her.
e|---------------------------------------------| 
B|---------------------------------------------| 
G|-----7------------11-------12----------14----| 
D|---7---7---9---11-------12----12----14----14-| 
A|-5-------7---9-------10----------12----------| 
E|---------------------------------------------| 

But where the hell are my priorities? 
e|---------------------------------------------| 
B|---------------------------------------------| 
G|-----7------------11-------12----------14----| 
D|---7---7---9---11-------12----12----14----14-| 
A|-5-------7---9-------10----------12----------| 
E|---------------------------------------------| 

Left in the hands of the authorities. 
e|------------------------------------------------------| 
B|------------------------------------------------------| 
G|-----7------------11-------12-------14----14----14----| 
D|---7---7---9---11-------12----12-------14----14----14-| 
A|-5-------7---9-------10----------12-------------------| 
E|------------------------------------------------------| 

ENDING: 
Yeah, baby! 
e|-------------------------------------------------| 
B|-------------------------------------------------| 
G|-7-------------7-----6h7p6---------------7---7---| 
D|-7-------------7---7-------5-------------7---7-7-| 
A|-5-5-5-5-5-5-5-5-5-7-------5-------------5-5-5-7-| 
E|---------------------------3-3-3-3-3-3-3---------| 
 
e|-------------------------------------------------| 
B|-------------------------------------------------| 
G|-7-------------7-----6h7p6---------------7---7---| 
D|-7-------------7---7-------5-------------7---7-7-| 
A|-5-5-5-5-5-5-5-5-5-7-------5-------------5-5-5-7-| 
E|---------------------------3-3-3-3-3-3-3---------| 

e|-------------------------------------------------| 
B|-------------------------------------7---5-5h7p5-| 
G|-7-------------6---9-6---------------7---6-------| 
D|-7-------------7-7-7-7-5-------------7-7-7-------| 
A|-5-5-5-5-5-5-5---------5-------------------------| 
E|-----------------------3-3-3-3-3-3-3-------------| 

e|-------------------------------------------------| 
B|-------------------------------------7---5-5h7p5-| 
G|-7-------------6---9-6---------------7---6-------| 
D|-7-------------7-7-7-7-5-------------7-7-7-------| 
A|-5-5-5-5-5-5-5---------5-------------------------| 
E|-----------------------3-3-3-3-3-3-3-------------| 

e|-------------------------------------------------| 
B|-------------------------------------------------| 
G|-7-------------7-----6h7p6---------------7---7---| 
D|-7-------------7---7-------5-------------7---7-7-| 
A|-5-5-5-5-5-5-5-5-5-7-------5-------------5-5-5-7-| 
E|---------------------------3-3-3-3-3-3-3---------| 

e|-----------------------------| 
B|-----------------------------| 
G|-7-------------7-----6h7p6---| 
D|-7-------------7---7-------5-| 
A|-5-5-5-5-5-5-5-5-5-7-------5-| 
E|---------------------------3-|
Comments