Propagandhi - The State Lottery Chords & Tabs

 

The State Lottery Chords & Tabs

Propagandhi Chords & Tabs

Version: 1 Type: Bass Tab 0 ratings
1 star 2 stars 3 stars 4 stars 5 stars
comments

The State Lottery Bass Tab

--------------------------------------------------------------------------
THE STATE LOTTERY - Propagandhi 
---------------------------------------------------------------------------

>Means Strum 

INTROx2 
G]-----------------------------] 
D]-----------------------------] 
A]--5>-4-4-5>-4-4-5>-4-4-3>-4>-] 
E]-----------------------------] 

VERSEx2 
G]------------] 
D]------------] 
A]-5>---------] 
E]----8>-6>-8-] 
[ Tab from: http://www.guitartabs.cc/tabs/p/propagandhi/the_state_lottery_btab.html ]
VERSE2 
G]--------------------] 
D]--------------------] 
A]-------1>-----3--4--] 
E]-1>-3>----1>--------] 

PRE-CHORUSx2 
G]--------------------------] 
D]--------------------------] 
A]-5-------------1-----0--0-] 
E]--------3-----------------] 

CHORUSx4 
G]------------------] 
D]------------------] 
A]-5-5-5-8----8>----] 
E]---------6>----5>-] 

OUTRO 
G]--------------------------------------------] 
D]--------------------------------------------] 
A]-1>-3>-5>-1>-3>-5>-1>-3>-5>-1>-3>-5-5-3-3-5-] 
E]--------------------------------------------] 

----------------------------------------------------------------------------
Comments