Propagandhi - Showdown Chords & Tabs

 

Showdown Chords & Tabs

Propagandhi Chords & Tabs

Version: 1 Type: Bass Tab 0 ratings
1 star 2 stars 3 stars 4 stars 5 stars
comments

Showdown Bass Tab

------------------------------------------------------------------------
                       SHOWDOWN      PROPAGANDHI
------------------------------------------------------------------------

> MEANS STRUM

INTRO
G]-----------------------]
D]-----------------------]
A]-----------------5>-3>-]x4
E]-3-3-3-0-0-0-3-0-------]
[ Tab from: http://www.guitartabs.cc/tabs/p/propagandhi/showdown_btab.html ]
CHORUS
G]-------------------------------------]
D]------------------------------3-5----]
A]-----------5>-3>-----------5>-----3>-]x7
E]-3>-0>-3-0-------3>-0>-3-0-----------]

VERSE
G]-------------------------------]
D]-------------------------------]
A]-------3>-5>-------------3>-5>-]
E]-0>-3>-------5-5-3-0>-3>-------]

PRE-CHORUS
G]----------]
D]----------]
A]-10>-5>-3-]x4
E]----------]

CHORUS x6
VERSE
PRE-CHORUS
CHORUS x5
END
G]------------]
D]------------]
A]-10>-5>-3---]
E]----------3-]

TABBED BY FUNKEL



Comments