Propagandhi - Purina Hall Of Fame Chords & Tabs

 

Purina Hall Of Fame Chords & Tabs

Propagandhi Chords & Tabs

Version: 2 Type: Tab 0 ratings
1 star 2 stars 3 stars 4 stars 5 stars
comments

Purina Hall Of Fame Tab

   
Band: Propagandhi
Song: Purina Hall of Fame
Album: Today's Empires, Tomorrow's Ashes

This tab is intended for www.ultimate-guitar.com

This song has a lot of parts to it.
Chris also records some extra guitar tracks on this song.
7/13/05

b: bend
v: vibrato
h: hammer-on
p: pull-off

Intro
(0:38)
E|----------------------------------------------------------|
B|--------------------------------------10-----9------------|
G|------------------------------------9------9--------------|
D|-4-4-4-x-4-4-6-7-4-6-7---4-4-4--4-7------6----------------|
A|-4-4-4-x-4---------------4-4-4--4--------------7----------|
E|-2-2-2-x-2---------------2-2-2--2-------------------------|

(0:43)
E|---------------------------5------------------------------|
B|-----------------------------5-------10-----9-------------|
G|-----------------------------------9------9---------------|
D|-4-4-4-x-4-4-6-7-4-6-7---------7-7------6-----6-----------|
A|-4-4-4-x-4---------------7--------------------7-----------|
E|-2-2-2-x-2-------------5----------------------0-----------|
Barre chord formation:   ^-------^

Verse
(0:49)
E|----------------------------------------------------------|
B|----------------------------------------------------------|
G|--------------------------------10--9---------------------|
D|-4-4-4-x-4-4-6-7-4-6-7-4-4-4--4-9---9--6------------------|
A|-4-4-4-x-4-------------4-4-4--4-7---6--7------------------|
E|-2-2-2-x-2-------------2-2-2--2--------0------------------|

(0:53)
E|----------------------------------------------------------|
B|----------------------------10----10--9-------------------|
G|--------------------------9-------9---9-------------------|
D|-4-4-4-x-4-4-6-7-4-6-7--7------7--7---6--6----------------|
A|-4-4-4-x-4-------------------------------7----------------|
E|-2-2-2-x-2-------------------------------0----------------|

(0:58)
E|----------------------------------------------------------|
B|----------------------------------------------------------|
G|--------------------------------10--9---------------------|
D|-4-4-4-x-4-4-6-7-4-6-7-4-4-4--4-9---9--6------------------|
A|-4-4-4-x-4-------------4-4-4--4-7---6--7------------------|
E|-2-2-2-x-2-------------2-2-2--2--------0------------------|

(1:02)
E|----------------------------------------------------------|
B|----------------------------10----10--9-------------------|
G|--------------------------9-------9---9-------------------|
D|-4-4-4-x-4-4-6-7-4-6-7--7------7--7---6--6----------------|
A|-4-4-4-x-4-------------------------------7----------------|
E|-2-2-2-x-2-------------------------------0----------------|

(1:06)
E|----------------------------------------------------------|
B|----9-10---12---------------------------------------------|
G|----8-9----11-11------------------------------------------|
D|-11-6-7----9--11-11---------------------------------------|
A|-11-----------9--11---------------------------------------|
E|-9---------------9----------------------------------------| x4

(1:23)
E|----------------------------------------------------------|
B|--------------------------------------10-9----------------|
G|--------------------------------------9--9----------------|
D|-4-----4-----4-4-6-7-4-6-7-4-4-x-4--4-7--6-6--------------|
A|-4-44444-44444-------------4-4-x-4--4------7--------------|
E|-2-22222-22222-------------2-2-x-2--2------0--------------|
     ^--^  ^--^   
Muted:

(1:28)
E|----------------------------------------------------------|
B|----------------------------------------------------------|
G|----------------------------------------------------------|
D|-4-4-4-x-4-4-6-7-4-6-7------------------------------------|
A|-4-4-4-x-4------------------------------------------------|
E|-2-2-2-x-2------------------------------------------------|

(1:30)
E|----------------------------------------------------------|
B|----4-----------------------------------------------------|
G|------6--4--2---------------------------------------------|
D|--6------4--2---------------------------------------------|
A|-4-------2--0---------------------------------------------|
E|----------------------------------------------------------|

(1:34)
E|----------------------------------------------------------|
B|----4-----------------------------------------------------|
G|------6--4--2----11-9--8-9--------------------------------|
D|--6------4--2----x--x--x-x--------------------------------|
A|-4-------2--0----9--7--6-7--------------------------------|
E|----------------------------------------------------------|

(1:38)
E|----------------------------------------------------------|
B|----4-----------------------------------------------------|
G|------6--4--2---------------------------------------------|
D|--6------4--2---------------------------------------------|
A|-4-------2--0---------------------------------------------|
E|----------------------------------------------------------|
Pickslide:--------------^

(1:43)
E|----------------------------------------------------------|
B|----4-----------------------------------------------------|
G|------6--4------------------------------------------------|
D|--6------4-6----------------------------------------------|
A|-4-------2-7----------------------------------------------|
E|-----------0----------------------------------------------|

Bridge:
(1:50)
E|----------------------------------------------------------|
B|----------------------------------------------------------|
G|-(6)----6-------6-----6-------6-------6---6---------------|
D|-(6)-------6------6------6------6-------------------------|
A|-(4)----------4-----4-------4-----4-4---4---4-------------|
E|----------------------------------------------------------|
An extra guitar plays the power chord in the beginning.

(1:56)
E|----------------------------------------------------------|
B|----------------------------------------------------------|
G|-6-----6-------6-------6---6------------------------------|
D|---6------6------6----------------------------------------|
A|-----4-------4-----4-4---4---4----------------------------|
E|----------------------------------------------------------|

(2:01)
E|----------------------------------------------------------|
B|----------------------------------------------------------|
G|----------------------------------------------------------|
D|-7-6---7--6----7-6----------------------------------------|
A|-----4-------4-----4--------------------------------------|
E|----------------------------------------------------------|

(2:04)
E|----------------------------------------------------------|
B|----------------------------------------------------------|
G|---6---6---6-----6-------6--------------------------------|
D|-------------6------6------6------------------------------|
A|-4---4---4-----4-------4-----4----------------------------|
E|----------------------------------------------------------|

(2:08)

E|----------------------------------------------------------|
B|----------------------------------------------------------|
G|-----6-----6--------6------6---6--------------------------|
D|---6-----6---------------6--------------------------------|
A|-4-----4-----4----4---4------4----------------------------|
E|----------------------------------------------------------| x8
This is played a lot faster than the other broken chord parts.

(2:27)
E|----------------------------------------------------------|
B|----------------------------------------------------------|
G|-----6----------6--4--------------------------------------|
D|---6---7------6----4--------------------------------------|
A|-4-----7----4------2--------------------------------------|
E|-------5--------------------------------------------------|
                     
(2:33)
[ Tab from: http://www.guitartabs.cc/tabs/p/propagandhi/purina_hall_of_fame_tab_ver_2.html ]
E|----------------------------------------------------------|
B|----------------------------------------------------------|
G|-6----------4-----6---------------------------------------|
D|-6--6--7----4--4--6---------------------------------------|
A|-4--6--7----2--4--4--------4-6-7-6-4----------------------|
E|----4--5-------2---------------------7--------------------| x4
Fill: -----------------------^
Only play the fill after the second time.

(2:36)
Extra guitar
E|----------------------------------------------------------|
B|----------------------------------------------------------|
G|----------------------------------------------------------|
D|----------------------------------------------------------|
A|-4-6-7-4-6-7-4-6-7-4-6-7-4-6-7----6-7-4-------------------|
E|----------------------------------------------------------|
   ^---------------------------^
Palm muted.

(2:45)
Extra guitar
E|----------------------------------------------------------|
B|----------------------------------------------------------|
G|----------------------------------------------------------|
D|----------------------------------------------------------|
A|-4-6-7-4-6-7-4-6-7-4-6-7-4-6-7----------------------------|
E|----------------------------------------------------------|
Palm muted.

(2:50)
Extra guitar
E|----------------------------------------------------------|
B|----------------------------------------------------------|
G|----------------------------------------------------------|
D|----------------------------------------------------------|
A|-4-6-7-4-6-7-4-6-7-4-6-7-4-6-7----------------------------|
E|----------------------------------------------------------|
Palm muted.

(2:52)
E|----------------------------------------------------------|
B|----------------------------------------------------------|
G|----------------------------------------------------------|
D|---6-7-7------6-7-6---------------------------------------|
A|-7-----7----4-----7---------------------------------------|
E|-------5----------0---------------------------------------|

(2:58)
E|-------------------4--------------------------------------|
B|----------5------5---5---5--------------------------------|
G|-(6)----6---6----------6---6------------------------------|
D|-(6)--6--------------------------7--6--4------------------|
A|-(4)-----------------------------7--6--4------------------|
E|---------------------------------5--4--2------------------| x4
Minor chord formation.
Extra guitar plays chord in the beginning the first time.

(3:20)
E|----------------------------------------------------------|
B|----------------------------------------------------------|
G|----------------------------------------------------------|
D|----------------------------------------------------------|
A|-4-6-7----------------------------------------------------|
E|----------------------------------------------------------| x21
Muted except last three times.

(3:31)
E|----------------------------------------------------------|
B|----------------------------------------------------------|
G|-6--6--6--8-9--11-9---------------------------------------|
D|-6--6--6--x-x--x--x--------7-7--7-7-7--7-7-7--7-7-7-------|
A|-4--4--4--6-7--9--7--------7-7--7-7-7--7-7-7--7-7-7-------|
E|---------------------------5-5--5-5-5--5-5-5--5-5-5-------|
Back up guitar plays this:   ^----------------------^

Chris does not switch back from the solo and rhythm guitar in this song.
There is an extra guitar that plays the same thing through the whole solo.

(3:35)
Rhythm under the solo
E|----------------------------------------------------------|
B|----------------------------------------------------------|
G|-6-6--6-6-6--6--8-9-11-9-8-6------------------------------|
D|-6-6--6-6-6--6--x-x-x--x-x-x-7-7--7-7-7--7-7-7--7-7-7--7--|
A|-4-4--4-4-4--4--6-7-9--7-6-4-7-7--7-7-7--7-7-7--7-7-7--7--|
E|-----------------------------5-5--5-5-5--5-5-5--5-5-5--5--| x8
It doesn't start fading out until after eight times.

(3:34)
Solo
E|-------12-11----------------------------------------------|
B|-12-14----14b---------------------------------------------|
G|----------------------------------------------------------|
D|----------------------------------------------------------|
A|----------------------------------------------------------|
E|----------------------------------------------------------|
Unison bend

(3:38)
E|-------12-16--16--16--16---------------------------------|
B|-12-14----19b-19b-19b-19bv-------------------------------|
G|---------------------------------------------------------|
D|---------------------------------------------------------|
A|---------------------------------------------------------|
E|---------------------------------------------------------|

(3:42)
E|-24-21-19----24b-----------------------------------------|
B|---------------------------------------------------------|
G|---------------------------------------------------------|
D|---------------------------------------------------------|
A|---------------------------------------------------------|
E|---------------------------------------------------------| x6
Chris is tremelo picking through this segment.
Only play the bend the last time.

(3:44)
E|-----21h24p21----24b-------------------------------------|
B|-24b-----------------------------------------------------|
G|---------------------------------------------------------|
D|---------------------------------------------------------|
A|---------------------------------------------------------|
E|---------------------------------------------------------| x9
Only play the bend the last time.

(3:48)
E|---------------------------------------------------------|
B|---------------------------------------------------------|
G|-11b-9-8-9-----------11b-9-8-9-11-11-11-11---------------|
D|-x---x-x-x-9--9-9-9--x---x-x-x-x--x--x--x----------------|
A|-9b--7-6-7-x--x-x-x--9b--7-6-7-9--9--9--9----------------|
E|-----------7--7-7-7--------------------------------------|
When bending the octaves, bend them up and bring them back down.

(3:53)
E|---------------------------------------------------------|
B|---------------------------------------------------------|
G|-11b-9-8-9-----------------------------------------------|
D|-x---x-x-x-9--9-9-9--------------------------------------|
A|-9b--7-6-7-x--x-x-x--------------------------------------|
E|-----------7--7-7-7--------------------------------------|

(3:55)
E|---------------------------------------------------------|
B|------------------------------------------------14-14-14v|
G|----------------13----13-14--13-14-16--13-14-16----------|
D|-13-14-16--14-16----16-----------------------------------|
A|---------------------------------------------------------|
E|---------------------------------------------------------|
Triplets.

(3:59)
E|---------------------------------------------------------|
B|-17-16-14--------17b-------------------------------------|
G|---------------------------------------------------------|
D|---------------------------------------------------------|
A|---------------------------------------------------------|
E|---------------------------------------------------------| x6
Chris is tremelo picking through this segment.
Only play the bend the last time.

(4:01)
E|-24-21-19------------------------------------------------|
B|---------------------------------------------------------|
G|---------------------------------------------------------|
D|---------------------------------------------------------|
A|---------------------------------------------------------|
E|---------------------------------------------------------| x16
Chris is tremelo picking through this segment.

(4:06)
E|-14--14--14--14--14--14--14--14--14----------------------|
B|-17b-17b-17b-17b-17b-17b-17b-17b-17b-16v-----------------|
G|---------------------------------------------------------|
D|---------------------------------------------------------|
A|---------------------------------------------------------|
E|---------------------------------------------------------|
A lot of unison bends.

(4:14)
E|-------12-16---------------------------------------------|
B|-12-14----19b--------------------------------------------|
G|---------------------------------------------------------|
D|---------------------------------------------------------|
A|---------------------------------------------------------|
E|---------------------------------------------------------|

The rest of the song fades out.

FIN!

Questions, suggestions, or comments? E-mail me at Cyco00Vision@hotmail.com

Edited: 2/27/07

Comments