Propagandhi - March Of The Crabs Chords & Tabs

 

March Of The Crabs Chords & Tabs

Propagandhi Chords & Tabs

Version: 1 Type: Bass Tab 0 ratings
1 star 2 stars 3 stars 4 stars 5 stars
comments

March Of The Crabs Bass Tab

----------------------------------------------------------------------- 
MARCH OF THE CRABS -- PROPAGANDHI 
----------------------------------------------------------------------- 

by: jamesDARDIS 
punk_phase@hotmail.com 

INTRO 
G |----------------------1--2-------------------------1--2-----------------| 
D |------------------------------------------------------------------------| 
A |------------------------------------------------------------------------| 
E |----2--2--2--2--2-------------2--2--2--2--2-----------------------------| 

G |------------------------------------------------------------------------| 
D |------------2------O--O--O--O--O--O--O-----------2-----O--2--O----------| 
A |----------------4-----------------------------------4-----------4-2-2-O-| 
E |--2--2--2--------------------------------2--2--2------------------------| 

G |------------------------------------------------------------------------| 
D |-------2-----O--O--2--O-------------------2---O--O--O--2--O-------------| 
A |----------4---------------O--4--2-----------4---------------4--2---4--4-| 
E |-2-2-2----------------------------2--2--2-------------------------------| 

G |------------------------------------------------------------------------| 
D |----------------2--2----2-----------------------------------------------| 
A |---4--4----4---------------O--O----O--2*--O-----------------------------| 
E |------------------------------------------------------------------------| 
1) "We stood our ground...." (x4) *1/8 note 

G |------------------------------------------------------------------------| 
D |------------------------------------------------------------------------| 
A |-4--4--4---2--2--O-O-O--------------------------------------------------| 
E |------------------------------------------------------------------------| 
2)"Get the caskets ready..........."(x2) 

G |------------------------------------------------------------------------| 
D |------------------------------------------------------------------------| 
A |---4--O-----------------------------------------------------------------| 
E |-----------4--2--2--2----5--O--4--2--2--5--O--4--2--2--2--2-------------| 
3)"That's if the anger don't...." 
[ Tab from: http://www.guitartabs.cc/tabs/p/propagandhi/march_of_the_crabs_btab.html ]
G |------------------------------------------------------------------------| 
D |----------------------------2--2--2-------------------------------------| 
A |---------------------4--4------------O--O--2*--O------------------------| 
E |------------------------------------------------------------------------| 
4)"But who am I?.............."(X4) *1/4 note 

"A harsh return that....."(play like 3) 

G |------------------------------------------------------------------------| 
D |------------------------------------------------------------------------| 
A |{4444444444444444}*-2-2-{4444444444444444}*-2-(play 2 6x)---------------| 
E |-------------------------------------------------5-5-5-5-4-4-4-4-5-5-5-5| 
5)"I've got a war in the head......"{*1/16 notes} "..a better prospect......." 
(x2) 

G |------------------------------------------------------------------------| 
D |------------------------------------------------------------------------| 
A |--2--2--2--2--2---------------------------------------------------------| 
E |-------------------5-5-5-5-5-4-4-4-4-4-5-5-5-5-5------------------------| 
6)"Farce and death......" 

"Graves and memorial walls...."(play like 3) 

G |------------------------------------------------------------------------| 
D |------------------------------------------------------------------------| 
A |---2--2--2--------------------------------------------------------------| 
E |-------------5--5--5--4--4--4--2--2--2--2--2--2--2----------------------| 
(x4) 

G |------------------------------------------------------------------------| 
D |------------------------------------------------------------------------| 
A |-4--4--4---2--2--O-O-O--------------------------------------------------| 
E |------------------------------------------------------------------------| 
7)"The fight never happened...."(x2) 

G |------------------------------------------------------------------------| 
D |------------------------------------------------------------------------| 
A |--4--------------------------------4------------------------------------| 
E |-----5---4---2--2--2--2--2------------4---2---O*------------------------| 
8) "Mission accomplished." *let ring 

this song is great for beginners to learn to use all of their fingers (and strings).. 

--------------------------------------------------------------------------
Comments