Propagandhi - I Was Preteen Mccarthyist Chords & Tabs

 

I Was Preteen Mccarthyist Chords & Tabs

Propagandhi Chords & Tabs

Version: 1 Type: Bass Tab 0 ratings
1 star 2 stars 3 stars 4 stars 5 stars
comments

I Was Preteen Mccarthyist Bass Tab

---------------------------------------------------------------------------
I WAS PRE-TEEN McCARTHYIST - Propagandhi 
---------------------------------------------------------------------------

> MEANS STRUM 

G]-----------------] [------------------------------] 
D]-----------------] [------------------------------] 
A]-7-7---------7-7-]x2 [-7>-4>----------------------] 
E]-----5-5-7-7-----] [------4-5-5-5-7>-4-5-5-5-5-7>-] 

AND TWELVE YEARS LATER 
G]-----------------------------------] 
D]-----------------------------------] 
A]-7--4--------7/---4-4-4------------] 
E]-------7--5-------------7-7/-5---5-] 
[ Tab from: http://www.guitartabs.cc/tabs/p/propagandhi/i_was_preteen_mccarthyist_btab.html ]
G]-------------] 
D]-------------] 
A]-7>-4>-------]x2 HOLD "A" LAST TIME THROUGH 
E]-------7>-5>-] 

G]-------------] [-----------------------]
D]-------------] [-----------------------]
A]-7>-------7>-]x2 [---------------7-6---]
E]----5>-7>----] [-4-5-5-5-7-7-7-----7-5-]

G]-------------------------------------------------------------------------
D]----------------------------------------7-7-6----------------------------
A]-7--6-----------7--6-----------4-4-4----------7>------4>-------4>--------
E]-------7--5--7--------7--5--4---------5----------7>-5----7>-5>----7>-5>--

----------] 
----------] 
-4>-------] 
----7>-5>-] 

END 
G]-------------------]
D]-------------------]
A]-7-7-7-7---------7-]
E]---------7-7-7-7---]

---------------------------------------------------------------------------
Comments