Propagandhi - Hate Myth Muscle Etiquette Chords & Tabs

 

Hate Myth Muscle Etiquette Chords & Tabs

Propagandhi Chords & Tabs

Version: 1 Type: Tab 0 ratings
1 star 2 stars 3 stars 4 stars 5 stars
comments

Hate Myth Muscle Etiquette Tab

-------------------------------------------------------------------------------
HATE, MYTH, MUSCLE, ETIQUETTE - Propagandhi
-------------------------------------------------------------------------------

VERSE
e|--------------------|------------------|
B|--------------------|------------------|
G|--9-----6--9--6--9--|-9-----6--9-------|do this part 2x
D|--9--9--6--9--6--9--|-9--9--6--9--7----|
A|--7--9--4--7--4--7--|-7--9--4--7--7----|
E|-----7--------------|----7--------5----|

e|-------------------|------------------------2x-----------|
B|-------------------|--------------------5------------5---|
G|----------------7--|--9-9-9-9-9-9----------6-----------6-|
D|-7--5-5-5-------7--|--6-6-6-6-6-6----6------------6------|
A|-7--5-5-5--5-5--5--|--7-7-7-7-7-7--4-----------0---------|
E|-5--3-3-3--2-2-----|-------------------------------------|

e|----------------------|
B|----------------5-----|
G|--9-9-9-9-9-----6--2--|
D|--6-6-6-6-6-----6--2--|
A|--7-7-7-7-7-----4--0--|
E|----------------------|
[ Tab from: http://www.guitartabs.cc/tabs/p/propagandhi/hate_myth_muscle_etiquette_tab.html ]
e|-------------------4x---------------------------------|
B|------------------------------------------------------|
G|--9--9-9-9-9--9--9-9-9-9-9--4--4-4-4-4--4--4-4-4-4----|
D|--6--6-6-6-6--6--6-6-6-6-6--4--4-4-4-4--4--4-4-4-4----|
A|--7--7-7-7-7--7--7-7-7-7-7--2--2-2-2-2--2--2-2-2-2----|
E|------------------------------------------------------|
Repeate everything from here, then...

e|---------------------3x----------------------|
B|-----------5-5-5-5---------------------------|
G|--9-9-9-9--6-6-6-6--4-4-4-4------------------|
D|--6-6-6-6--6-6-6-6--4-4-4-4--5-5--7-7--------|
A|--7-7-7-7--4-4-4-4--2-2-2-2--5-5--7-7--------|
E|-----------------------------3-3--5-5--------|

ENDING
e|-----------------------------------------|
B|--------------------5------------5-------|
G|--9-9-9-9-9-9----------6-----------6-----|
D|--6-6-6-6-6-6----6------------6----------|
A|--7-7-7-7-7-7--4-----------0-------------|
E|-----------------------------------------|

e|--------------------------------|
B|-------------------5------------|
G|--9-9-9-9-9-----------6--2------|
D|--6-6-6-6-6-----6--------2------|
A|--7-7-7-7-7--4-----------0------|
E|--------------------------------|

-------------------------------------------------------------------------------
Check out more propagandhi tabs at http://www.tapuak.de/
Comments