Propagandhi - Gamble Chords & Tabs

 

Gamble Chords & Tabs

Propagandhi Chords & Tabs

Version: 1 Type: Bass Tab 0 ratings
1 star 2 stars 3 stars 4 stars 5 stars
comments

Gamble Bass Tab

Artist: Propagandhi
Song: Gamble
Album: Where Quantity is Job #1

This tab is more correct and accurate then all the others on the net. Play the Verse
for the Most-Part and just add in the Verse variation when you feel the need to.
Figure put the timing yourself.


**Verse** 
G|------------------------------------------------------------------------| 
D|----------------------------------0-0-0-0-0-0-0-0-----------------------| 
A|------------------1-1-1-1-1-1-1-1------------------0-1-1-1-1-1-1-1------| 
E|1-1-1-1-1-1-1-1-0-------------------------------------------------------| 
[ Tab from: http://www.guitartabs.cc/tabs/p/propagandhi/gamble_btab.html ]
**Verse Variation**
G|------------------------------------------------------------------------| 
D|--------------------------------0-0-0-0-0-0-0-0-------------------------| 
A|----------------0-1-1-1-1-1-1-1-----------------0-1-1-1-1-1--REST--0-0--| 
E|1-1-1-1-1-1-1-1---------------------------------------------------------| 

**Chorus** 
G|-----------------|----------------------R-------------------------------| 
D|-----------------|----------------------E-------------------------------| 
A|---**VERSE-X1**--|--------------333-----S------------3---1-1-1-1--------| 
E|-----------------|----111111------------T------1-1-1---3----------------|


RATE 5!!!!

Rock On! \m/,
          |
Corbs
Comments