Propagandhi - Fuck Machine Chords & Tabs

 

Fuck Machine Chords & Tabs

Propagandhi Chords & Tabs

Version: 1 Type: Bass Tab 0 ratings
1 star 2 stars 3 stars 4 stars 5 stars
comments

Fuck Machine Bass Tab

-----------------------------------------------------------------------------
                FUCK MACHINE     -  PROPAGANDHI
-----------------------------------------------------------------------------

blythe@pathcom.com              > MEANS STRUM

INTRO
G]-------------]
D]-------------]
A]---1-1---1-1-]
E]-1-----1-----]

VERSEx2
G]--------------------]
D]----------------5---]
A]----0>-1>-3-3-3---3-]
E]-1>-----------------]

CHORUS#1
G]----------]
D]----------]
A]-5>----8>-]
E]----6>----]

VERSE

CHORUS#2
G]-------------------------------------]
D]-------------------------------------]
A]-5>----8>-5>----8>-5>----8>-6>-5>----]
E]----6>-------6>-------6>----------6>-]

VERSE
CHORUS#2
VERSE
[ Tab from: http://www.guitartabs.cc/tabs/p/propagandhi/fuck_machine_btab.html ]
BRIDGE
G]---------------------------------------------------------------5>---------
D]---------------------------5>-7-5-3>-3-2-0-3-------5>-5-7-5-3>------------
A]-3-3--3-3--3-3--3-3--3>----------------------3>-------------------3>------
E]------------------------5>----------------------5>-------------------5>---

----------------------------------------------------------------------------
-5>-5-7-5-3>-3-2-0-3-------5>-7-5-3>-3-2-0-3-------5>-7-5-3>-3-2-0-3--------
---------------------3>----------------------3>-----------------------3>----
------------------------5>----------------------5>-----------------------5>-

-------------5>-----------------------------------------5>---]
-5>-5-7-5-3>----------5>-7-5-3>-3-2-0-3-------5>-7-5-3>------]
----------------3>----------------------3>-----------------3-]
-------------------5>----------------------5>----------------]

G]-------------]
D]-------------]
A]-3--5--7--10-]
E]-------------]

VERSE
CHORUS#1



Comments