Propagandhi - And We Thought Nation States Were A Bad Idea Chords & Tabs

 

And We Thought Nation States Were A Bad Idea Chords & Tabs

Propagandhi Chords & Tabs

Version: 1 Type: Bass Tab 0 ratings
1 star 2 stars 3 stars 4 stars 5 stars
comments

And We Thought Nation States Were A Bad Idea Bass Tab

Band : Propagandhi
Titre : And we thought Nation States were a bad idea



#1

|----------------------------------------------------------|
|----------------------------------------------------------|
|-1-1-1-------------6-6-6-5-4------------------------------|
|-------1-1-1--3>------------------------------------------|

#2

|----------------------------------------------------------|
|----------------------------------------------------------|
|-1>--------------------6-6-6-5-4-------------2------------|
|----1-1-2-2-3-3-3-2-1-------------------------------------|

#3

|----------------------------------------------------------|
|----------------------------------------------------------|
|-1>--------------3>---------------------------------------|
|------1>---3>---------------------------------------------|
[ Tab from: http://www.guitartabs.cc/tabs/p/propagandhi/and_we_thought_nation_states_were_a_bad_idea_btab.html ]
#4

|----------------------------------------------------------|
|----------------------------------------------------------|
|-1>-6>----------1>--6>--1>--3>--6>------------------------|
|--------3>--1>--------------------------------------------|

#5

|----------------------------------------------------------|
|----------------------------------------------------------|
|-1>--3>--6>--8>--9>---1>--3>--6>--8>--9>------------------|
|----------------------------------------------------------|

#6

|----------------------------------------------------------|
|----------------------------------------------------------|
|--6-6-6-5-4-------------6-6-6-5-4-------------------------|
|-------------3-3-3-2-1------------3-3-3-2-1---------------|


# 1 : x1
# 2 : x4
# 3 : x2
# 4 : x2
# 5 : x2
# 4 : x1
# 1 : x2
# 6 : x2


Comments