Prong - Snap Your Fingers Snap Your Neck Chords & Tabs

 

Snap Your Fingers Snap Your Neck Chords & Tabs

Prong Chords & Tabs

Version: 3 Type: Bass Tab

Snap Your Fingers Snap Your Neck Bass Tab

Band: Prong
Song: Snap Your Fingers, Snap your neck
Album: Cleansing

Some parts of this song has to be really fast so use a pick. 
Listen carefully to figure out what goes where, cause the bass 
player mixes it up alot. 

Riff 1
F---------|-----------|----------|I think he plays the 3rd one only
C---------|-----------|----------|during the intro, during the verses
G---------|-----------|----------|it's the 1st and 2nd.
C--0-030--|-0-3-0-3-6-|-0-3-0306-|

Riff 2
F--------------------------------|
C--------------------------------|
G--------------------------------|Listen carefully to get this part right.
C--060-55-0-6-0-5-0-12-----------|
[ Tab from: http://www.guitartabs.cc/tabs/p/prong/snap_your_fingers_snap_your_neck_btab_ver_3.html ]
Riff 3a                                He mixes it up with this.
F-------------------------------|-------------------------------|
C-------------------------------|-------------------------------|
G--3-3-3-3-6-6-6-5-5-5-5-5-5-5--|--3-3-3-3-6-6-6-5-5-5-5-5-3-5--|
C-------------------------------|-------------------------------|

Riff 3b
F------------------------------------| 
C----------------------7-----6---7---|
G--3-3-3-3-6-6-6-5-5-5---5-5---5---5-|He plays this part during the
C------------------------------------|guitar solo.

This is a pretty easy song to learn, mainly cause the bass can be heard
clearly, if theres any mistakes feel free to corrent them or email me at
chrishan_lp6@hotmail.com.