Promise Ring - Stop Playing Guitar Chords & Tabs

 

Stop Playing Guitar Chords & Tabs

Promise Ring Chords & Tabs

Version: 1 Type: Tab 0 ratings
1 star 2 stars 3 stars 4 stars 5 stars
comments

Stop Playing Guitar Tab

   
tabbed by claudio quina



The Promise Ring - Stop Playing Guitar

intro: A-F#m-E-D

(intro second guitar)

  A               F#m           E      D
e----------------------------------------------------
B-2-2-2-2/3-2-2/5------------------------------------
G----------------2---2-4/6-4-2/4-------2---4/6-4-2---
D---------------------------4---2---2-4--------------
A----------------------------------------------------
E----------------------------------------------------
  A             F#m           E        D         A
e----------------------------------------------------
B-2-2-2/3-2-2/5--------------------------------------
G--------------2---2-4/6-4-2/4-------2-6-4-------2---
D-------------------------4---2---2-4---------2-4----
A----------------------------------------------------
E----------------------------------------------------

(in all music the same chords as intro)


So if I had a dime for
Every time I
should have stopped playing guitar, and
put my nose in a book
Then my head would be healthy
and my guitar would be dusty
and that just might save me
from a bunch of bad songs
[ Tab from: http://www.guitartabs.cc/tabs/p/promise_ring/stop_playing_guitar_tab.html ]
So, maybe I am too polite
Just like good Moses.
Just like good manners.
We've had enough of them

Yeah, yeah oh yeah. Yeah, oh yeah
Now we're moving a little bit slow
Yeah, oh yeah. Yeah, oh yeah
Yeah Yeah Yeah Yeah Yeah Yeah Yeah

Another round for my friends, I'll
get payback later
when evening turns midnight
I'll be just getting home
I know that you're hot and you're bothered
Now you're skin's going crazy
It's a hundred degrees, and
you've got a sweater on

So, I'd like to come out
the side of the kitchen
So that when this party's ending
I'll be taking your number home

Yeah, yeah oh yeah. Yeah, oh yeah.
Now we're moving a little bit slow
Yeah, oh yeah. Yeah, oh yeah.
Yeah Yeah Yeah Yeah Yeah Yeah Yeah

solo:
e-------------------------------------------------------
B---2/3-2-2/5-2-----------------------------------------
G--2------------4---2-4/6-4--4---2-4/6-4--4----2-4-4/6-- x2
D----------------2-4----------2-4----------2--4---------
A-------------------------------------------------------
E-------------------------------------------------------

Yeah, yeah oh yeah. Yeah, oh yeah.
Now we're moving a little bit slow
Yeah, oh yeah. Yeah, oh yeah.
Yeah Yeah Yeah Yeah Yeah Yeah Yeah

Stop playing guitar...
Stop playing guitar...



(this is a good music...don't fuck this...)


tabbed by claudio quina
questions? email-me to claudioquina@hotmail.com

i love Portugal!!!
VIVA PORTUGAL!!!
Comments