Promise Ring - Perfect Lines Chords & Tabs

 

Perfect Lines Chords & Tabs

Promise Ring Chords & Tabs

Version: 2 Type: Tab 0 ratings
1 star 2 stars 3 stars 4 stars 5 stars
comments

Perfect Lines Tab

   
-----------------------------------------------------------------------------
                             PERFECT LINES - The Promise Ring
-----------------------------------------------------------------------------
Tuning: Standard


Intro/Chorus:                                                  x4
e|---------------------------------------------------------------|---------|
B|-------5--3------------------------8---8-----------------------|---------|
G|-------x--x--5----4---------x---x--x---x---x--10----9-----9----|-5-------|
D|--5--5-5--5--5--5-5--5-5-5--9---9--9---9---9--9--9--9--9--9----|-5-------|
A|--3--3-3--3--3--3-3--3-3-3-10--10-10--10--10--10-10-10-10-10---|-3-------|
E|---------------------------------------------------------------|---------|
(Sorry about timing, you really need to listen to the song and figure it out)

2nd Guitar comes in with this ("I traced all of the letters")
e|--------------------------------------------------------------|---------|
B|--------------------------------------------------------------|---------|
G|-5-5-5-5-5-5-5-5-5-5-5-5-5-5----------------------------------|-5-------|
D|-5-5-5-5-5-5-5-5-5-5-5-5-5-5-5-5-5-5-5-5-5-5-5-5-5-5-5-5-5-5--|-5-------|
A|-3-3-3-3-3-3-3-3-3-3-3-3-3-3-5-5-5-5-5-5-5-5-5-5-5-5-5-5-5-5--|-3-------|
E|-----------------------------3-3-3-3-3-3-3-3-3-3-3-3-3-3-3-3--|---------|

[ Tab from: http://www.guitartabs.cc/tabs/p/promise_ring/perfect_lines_tab_ver_2.html ]
Verse:
e|-----------------------------------------------------------------|
B|-1-1-1-1-1-1-1-1-3-3-3-3-0-0-1-1-5-5-5-5-5-5-1-1-3-3-3-3-0-0-1-1-|
G|--0-0-0-0-0-0-0-0-0-0-0-0-0---0-0-0-0-0-0-0-0-0-0-0-0-0-0-0-0-0--|
D|-----------------------------------------------------------------|
A|-----------------------------------------------------------------|
E|-----------------------------------------------------------------|
 |
e|-----------------------------------------------------------------|
B|-1----------------3---------------5---------------3----------3-3-|
G|---------0----------------0---------------0--------------0---0-0-|
D|-----------------------------------------------------------------|
A|-----------------------------------------------------------------|
E|-----------------------------------------------------------------|


Repeat all of the above twice then:

Extended Verse: ("Lets talk about the sound...")
e|------------------------------------------------------------------|
B|------------------------------------------------------------------|
G|------------------------------------------------------------------|
D|------------------------------------------------------------------|
A|-3333333333333333555555555555555577777777777777775555555555555555-|
E|------------------------------------------------------------------|
 | pm.............................................................. |
 |                                                                  |
e|------------------------------------------------------------------|
B|---p----p---p---p--p----p---p---p--p----p---p---p--p----p---p---p-|
G|---20--20--20--20--20--20--20--20--20--20--20--20--20--20--20--20-|
D|-00--00--00--00--00--00--00--00--00--00--00--00--00--00--00--00---|
A|------------------------------------------------------------------|
E|------------------------------------------------------------------|
   pm  ..  ..  ..  ..  ..  ..  ..  ..  ..  ..  ..  ..  ..  ..  ..

e|------------------------------------------------------------------|
B|------------------------------------------------------------------|
G|-5555555555555555----------------5555555555555555-----------------|
D|-5555555555555555555555555555555555555555555555555555555555555555-|
A|-3333333333333333555555555555555533333333333333335555555555555555-|
E|-----------------3333333333333333----------------3333333333333333-|
 |                                                                  |
e|------------------------------------------------------------------|
B|---p----p---p---p--p----p---p---p--p----p---p---p--p----p---p---p-|
G|---20--20--20--20--20--20--20--20--20--20--20--20--20--20--20--20-|
D|-00--00--00--00--00--00--00--00--00--00--00--00--00--00--00--00---|
A|------------------------------------------------------------------|
E|------------------------------------------------------------------|

Then end with the Intro/Chorus
Comments