Promise Ring - Make Me A Chevy Chords & Tabs

 

Make Me A Chevy Chords & Tabs

Promise Ring Chords & Tabs

Version: 2 Type: Tab 0 ratings
1 star 2 stars 3 stars 4 stars 5 stars
comments

Make Me A Chevy Tab

   
#----------------------------------PLEASE NOTE--------------------------------#
#This file is the author's own work and represents their interpretation of the#
#song. You may only use this file for private study, scholarship, or research.#
#-----------------------------------------------------------------------------#

Date: Sat, 28 Mar 1998 13:32:27 -0500 (EST)
From: Mark Joseph Leiber 
Subject: TAB: make_me_a_chevy.tab by Promise Ring

Title: Make Me A Chevy
Album: Nothing Feels Good
Artist: Promise Ring
---------------------------------------------------------------------
Transcribed by: Mark Leiber
mark@gwis2.circ.gwu.edu  http://gwis2.circ.gwu.edu/~mark
Standard Tuning.
---------------------------------------------------------------------

LYRICS:  (i've written out every word he says)

  an old Chevy.  make me a... make me a
  an old Chevy.  make me a... make me a
  an old Chevy.
  where in the world would i go
  how do i explain your body to the rest of my day
  not as good as the interstates are
  i just can't take you that far.  away.  so stay.
  make me a... make me a... make me a... an old Chevy
  make me a... make me a... an old Chevy
  make me a... make me a... an old Chevy
  where in the world would i go
  how do i explain your body to the rest of my day
  not as good as the interstates are
  i just can't take you that far.
  maybe dick clark and davey and davey and davey
  move a car but not as good as the interstates
  not as good as the interstates are
  i just can't take you that far.  away.  so stay.

==================

GUITAR 1:

two measure rest.  then play:

[A]
e------------------------------||
b------8------8------8------8--||
g--10-----10-----10-----10-----||
d------------------------------||
a------------------------------||
e------------------------------||
    1  +   2  +   3  +   4  +

[B]
e------------------------------||
b------8-----------------------||
g--10--------------------------||
d------------------------------||
a------------------------------||
e------------------------------||
    1  +   2  +   3  +   4  +


Play [A] 42 times.  Play [B].
Play [A] 15 times.  Play [B].
Play [A] 20 times.  Play [B].

==================

GUITAR 2:

[A]
e------------12----------------||
b--13--------------------------||
g-----12-----------------------||
d------------------------------||
a------------------------------||
e------------------------------||
    1  +   2  +   3  +   4  +

[B]
e------------------------------||
b--13--------------------------||
g-----12-----------------------||
d------------------------------||
a------------------------------||
e------------------------------||
    1  +   2  +   3  +   4  +


[C]
  {-------repeat x3----------------------------------------------||
e------------------------------||--------------------------------||
b------------------------------||--------------------------------||
g------------------------------||--------------------------------||
d--10-10--10-10--10-10--10-12--||--10-10--10-10--10--8---8--8----||
a--10-10--10-10--10-10--10--x--||--10-10--10-10--10--x---x--x----||
e---8--8---8--8---8--8---8-10--||---8--8---8--8---8--6---6--6----||
    1  +   2  +   3  +   4  +       1  +   2  +   3  +   4  +

[ Tab from: http://www.guitartabs.cc/tabs/p/promise_ring/make_me_a_chevy_tab_ver_2.html ]
[D]
e----------------||---------------||--------------||--------------||
b----------------||---------------||--------------||--------------||
g----------------||---------------||--7--7--------||-10-10--------||
d--10-10---------||-10-10---------||--x--x--------||--x--x--------||
a--10-10---------||-10-10---------||--5--5--------||--8--8--------||
e---8--8---------||--8--8---------||--------------||--------------||
    1  +  2+3+4+     1  +   2+3+4+    1  +  2+3+4+    1  +  2+3+4+


[E]
e---------------||------------------||-----------------||--------------||
b---------------||------------------||-----------------||--------------||
g---------------||------------------||-----------------||--------------||
d-10-10-10-10---||-12--12--12--12---||-14--14--14--14--||-15-15-15-15--||
a-10-10-10-10---||-12--12--12--12---||-14--14--14--14--||-15-15-15-15--||
e--8--8--8--8---||-10--10--10--10---||-12--12--12--12--||-13-13-13-13--||
   1+ 2+ 3+ 4 +     1 + 2 + 3 + 4 +     1 + 2 + 3 + 4 +    1+ 2+ 3+ 4+


[F]
e----------------||---------------||--------------||--------------||
b----------------||---------------||--------------||--------------||
g----------------||--9--9---------||--7--7--------||--5--5--------||
d--10-10---------||--x--x---------||--x--x--------||--x--x--------||
a--10-10---------||--7--7---------||--5--5--------||--3--3--------||
e---8--8---------||---------------||--------------||--------------||
    1  +  2+3+4+     1  +   2+3+4+    1  +  2+3+4+    1  +  2+3+4+


Play [A] 18 times.
Play [C] twice.  Play [D].
Play [A] 14 times.  Play [B].
Play [A] 15 times.  Play [B].
Play [A].
Play [C] twice.  Play [E] twice.
Play [F].

==================

BASS LINE:

2 measure rest.  then play:

[A]
g-------------------|---------------------|------------------|---------------|
d-------------------|--8---8---8---8h10p8-|--7---7---7---7-5-|---------------|
a--3---3---3---3-1/-|---------------------|------------------|-8-8-8----0-1--|
e-------------------|---------------------|------------------|--------1------|
   1 + 2 + 3 + 4 +     1 + 2 + 3 + 4 +	     1 + 2 + 3 + 4 +   1+2+3  + 4 +


[B]
g------------|------------|------------|------------|
d------------|------------|------------|------------|
a--3-3-------|--1-1-------|--0-0-------|------------|
e------------|------------|------------|--1-1-------|
   1 + 2+3+4+   1 + 2+3+4+   1 + 2+3+4+   1 + 2+3+4+


[C]
g------------|------------|------------|------------|
d------------|------------|------------|------------|
a--3-3-------|--1-1-------|--0-0-------|--8-8-------|
e------------|------------|------------|------------|
   1 + 2+3+4+   1 + 2+3+4+   1 + 2+3+4+   1 + 2+3+4+


[D]
g----------------|-----------------|-------------|
d----------------|--8-8-----8h10p8-|--7-7--------|
a--3-3-----1-3/--|-----------------|-------------|
e----------------|-----------------|-------------|
   1 + 2+3 + 4 +    1 + 2+3 + 4 +     1 + 2+3+4+


[E]
g--------------|--------------|---------------|------------|
d--------------|--------------|--8-8-8-8h10p8-|--7-7-7-7-5-|
a--8-8-8---0-1-|--3-3-3---0-1-|---------------|------------|
e--------1-----|--------1-----|---------------|------------|
   1+2+3 + 4 +    1+2+3 + 4 +    1+2+3 + 4 +     1+2+3+4 +

[F]
g---------------|
d---------------|
a--3--3---------|
e---------------|
   1  +  2+3+4+


[G]
g----------|
d----------|
a--3-3-3-3-|
e----------|
   1+2+3+4+


Play [A] 4 times.
Play [B] twice.  Play [C].
Play [A] 3 times.  Play [D].
Play [E] 3 times.  Play [F].
Play [D].  Play [G].
Play [B] 4 times.  Play [C].
Comments