Promise Ring - Electric Pink Chords & Tabs

 

Electric Pink Chords & Tabs

Promise Ring Chords & Tabs

Version: 1 Type: Tab 0 ratings
1 star 2 stars 3 stars 4 stars 5 stars
comments

Electric Pink Tab

Title: Electric Pink
Album: Electric Pink EP
Tabbed by: Kris Johansen - krisjohansen@guitarsrule.com


Bass line parts for intro and verses
            (Part 1)                                    (Part 2)
e------------------------------------|---------------------------------|
B------------------------------------|---------------------------------|
G------------------------------------|---------------------------------|
D------------------------------------|------------------2-2-2-2-2h-3---|
A---3-3-3-3-0-0-0-0------------------|--3-3-3-3-0-0-0-0----------------|
E-------------------0-0-0-0-0h1-1-1-1|---------------------------------|

                (Part3)
e-------|-----------------------------------------|
B-------|-----------------------------------------|
G-------|-----------------------------------------|
D-3-3-2-|-----------------------------------------|
A-------|--3-3-3-3-----------3-3-3-3--------------|
E-------|-----------3-3-3-3----------3-3-3h5-5-3--|

From start play Part 1, Part 2 (x2), Part 3, Part 2

Guitar cuts in between first and second verse and just
before chorus with the chord in brackets played as well.
[ Tab from: http://www.guitartabs.cc/tabs/p/promise_ring/electric_pink_tab.html ]
e----------------------------------------------------------------------|
B----------------------------------------------------------------------|
G---5--5--------5--5---------------------------------------------------|
D---5--5--5--5--5--5---(5~)--------------------------------------------|
A---3--3--5--5--3--3---(5~)--------------------------------------------|
E---------3--3---------(3~)--------------------------------------------|


Chorus chords - "so yeah, I feel electric...."

e----------|------------------------------------------------------------|
B----------|------------------------------------------------------------|
G--5-----9-|------------------------------------------------------------|
D--5--5--9-|-10-10-10-10-7-7--------------------------------------------|
A--3--3--7-|-8--8--7--7--5-5--------------------------------------------|
E-----5----|------------------------------------------------------------|


Bridge chords - "between a wink and an earthquake there are conversations"

e----------------------------------------------------------------------|
B----------------------------------------------------------------------|
G--7--10---------------------------------------------------------------|
D--7--10-10---3--5-----------------------------------------------------|
A--5--8--7----3--5-----------------------------------------------------|
E-------------1--3-----------------------------------------------------|

In the quiet bit the 2nd guitar just holds a C barre chord 
for the whole thing. Then, I THINK there's this chord under
the end chorus.

e----------------------------------------------------------------------|
B--13------------------------------------------------------------------|
G--12------------------------------------------------------------------|
D--10------------------------------------------------------------------|
A----------------------------------------------------------------------|
E----------------------------------------------------------------------|
Comments