Promise Ring - E Texas Ave Chords & Tabs

 

E Texas Ave Chords & Tabs

Promise Ring Chords & Tabs

Version: 2 Type: Tab 0 ratings
1 star 2 stars 3 stars 4 stars 5 stars
comments

E Texas Ave Tab

Title: East Texas Avenue
Album: The Horse latitudes - originally from split 7" w/ TITR
Tabbed by: Kris Johansen - krisjohansen@usa.net


Introduction

e-----------------0--------|
B-----------3--------------|
G-----0----------------0---|:
D--------------------------|:
A---3----3-----3-----3-----|
E--------------------------|


Verse chords (x2 of each phrase)

e-------------|--------------|
B-------------|--------------|
G---5-5--5--5-|---9--9--9-9--|
D---5-5--5--5-|---9--9--9-9--|
A---3-3--3--3-|---7--7--7-7--|
E---3-3--3--3-|---7--7--7-7--|

Chorus

"I hang my head in Hartford"
[ Tab from: http://www.guitartabs.cc/tabs/p/promise_ring/e_texas_ave_tab_ver_2.html ]
e--------------------------------|--------------------------------------|
B--------------------------------|--0-0-0-------------------------------|
G---12--12--11-11----9--9--7--7--|--0-0-0-------------------------------|
D--------------------------------|--2-2-2---etc-------------------------|
A---10--10--9--9-----7--7--5--5--|--3-3-3-------------------------------|
E--------------------------------|--------------------------------------|

Breakdown - just pick around these notes (yeah im lazy too bad :) play
it near the bridge to get a more trebly sound. 

e------------0----------------------------------------------------------|
B---------12------------------------------------------------------------|
G-------0---------------------------------------------------------------|
D-----9-----------------------------------------------------------------|
A--10-------------------------------------------------------------------|
E-----------------------------------------------------------------------|
Comments