Project Wyze - Nothings What It Seems Chords & Tabs

 

Nothings What It Seems Chords & Tabs

Project Wyze Chords & Tabs

Version: 4 Type: Tab 0 ratings
1 star 2 stars 3 stars 4 stars 5 stars
comments

Nothings What It Seems Tab

Nothing's What it seems
by Project Wyze

tuning = Drop D

I’ve timed almost all the gtr. 2 stuff to the gtr. 1 stuff overhead.
I’m pretty sure this is right.

Intro - w/clean tone
Gtr. 1
------------------------------------------------------------
------------------------------------------------------------
--9---9--9--10---10---10---12----12----12----12----12----12-
---9---9------10---10--------12----12----------12----12-----
-7--7---7--8----8----8---10----10----10----10----10----10---
------------------------------------------------------------

Gtr.2
-------------
-------------
-------------
-----2-------
-----2-------
-----2-------

verse – w/ distortion
gtr. 1
------------------------------------------------------------
------------------------------------------------------------
--9---9--9--10---10---10---12----12----12----12----12----12-
---9---9------10---10--------12----12----------12----12-----
-7--7---7--8----8----8---10----10----10----10----10----10---
------------------------------------------------------------

Gtr. 2
------------------------------------------------------------
------------------------------------------------------------
--9--------10--12121212-----12121212/141414-----------------
------------------------------------------------------------
--7--------8---10101010-----10101010/121212-----------------
------------------------------------------------------------
[ Tab from: http://www.guitartabs.cc/tabs/p/project_wyze/nothings_what_it_seems_tab_ver_4.html ]
Chorus Riff - w/distortion
Gtr. 1
---------------------------------------------
---------------------------------------------
-4-------7-------6-----66---77---77----------
-2--xxxx-5--xxxx-4--xx-44-x-55-x-55----------
-2--xxxx-5--xxxx-4--xx-44-x-55-x-55----------
-2--xxxx-5--xxxx-4--xx-44-x-55-x-55----------
Gtr. 2
------------------------------------------------------------
------------------------------------------------------------
-4--xxxx-8--xxxx-7--xx-77-x-88-x-88-------------------------
-4--xxxx-8--xxxx-7--xx-77-x-88-x-88-------------------------
-2--xxxx-6--xxxx-5--xx-55-x-66-x-66-------------------------
------------------------------------------------------------



Bridge riff - w/distortion (after 2x, gtr 2 comes in
With gtr.1 verse riff but distorted for original version)
Gtr.1
-------------------------------------------------
-------------------------------------------------
-2-------3----------5----------------------------
-2-------3----------5----------------------------
-2-------3----------5----------------------------

if you play the 6 and ½ min. version I do, then there’s a little breakdown where
the DJ is scratching over a sample that goes “come like a guillotine” and there’s
a little breakdown.

------------------------------------------------------------
------------------------------------------------------------
------------------------------------------------------------
----2--2-2--2--2-2--1--1-1--1--1-1--------------------------
--22-22-2-22-22-2-11-11-1-11-11-1--------------------------- x6
------------------------------------------------------------

and on the 6th time, Gtr. 2 does a pick slide, but somehow gets it really high
pitched……. Not sure there. Then just pick up with the bridge.


and that’s about all you need.

Questions, comments, hate mail, don’t send them to me. Send them to someone who
cares. I’m almost 100% sure the song is right.  the only thing I’m really not
sure about is the way I play the chorus……. But my band plays like that and it
sounds fine.
Comments