Project Wyze - Nothings What It Seems Chords & Tabs

 

Nothings What It Seems Chords & Tabs

Project Wyze Chords & Tabs

Version: 1 Type: Tab 0 ratings
1 star 2 stars 3 stars 4 stars 5 stars
comments

Nothings What It Seems Tab

   
Project Wyze - Nothing's What It Seems

Standard Tuning

Intro/Verse

e|--0-0-0-0-1-1-1-1-3-3-3-3-|
b|-0-0-0-0-1-1-1-1-3-3-3-3--|
g|--------------------------|
d|--------------------------|
a|--------------------------|
e|--------------------------|

Chorus
[ Tab from: http://www.guitartabs.cc/tabs/p/project_wyze/nothings_what_it_seems_tab.html ]
      E5         G5         F#5        G5
e|-x-x-x-x-x--x-x-x-x-x--x-x-x-x-x--x-x-x-x--|
b|-x-x-x-x-x--x-x-x-x-x--x-x-x-x-x--x-x-x-x--|
g|-x-x-x-x-x--x-x-x-x-x--x-x-x-x-x--x-x-x-x--|
d|-2-2-2-2-2--5-5-5-5-5--4-4-4-4-4--5-5-5-5--|
a|-2-2-2-2-2--5-5-5-5-5--4-4-4-4-4--5-5-5-5--|
e|-0-0-0-0-0--3-3-3-3-3--2-2-2-2-2--3-3-3-3--|

Chorus 2

     E5        F5    G5
e|-x-x-x-x--x-x-x-x--x--|
b|-x-x-x-x--x-x-x-x--x--|
g|-x-x-x-x--x-x-x-x--x--|
d|-2-2-2-2--3-3-3-3--5--|
a|-2-2-2-2--3-3-3-3--5--|
e|-0-0-0-0--1-1-1-1--3--|
Comments