Project Wyze - Nothings What It Seems Chords & Tabs

 

Nothings What It Seems Chords & Tabs

Project Wyze Chords & Tabs

Version: 1 Type: Bass Tab 0 ratings
1 star 2 stars 3 stars 4 stars 5 stars
comments

Nothings What It Seems Bass Tab

   
Project Wyze
Nothings what it seems
Standard tuning(B,E,A,D,G)
Mapped by:Yakalien and C. Teed
Posted By:Yakalien


There is very little bass on the intro or the verse(Mostly vocals and guitars)

verse(start when you hear the drums start)    x12
G-----------------
D-----------------
A-----------------
E-0-0-0-0-0-0-0-0-
B-----------------
[ Tab from: http://www.guitartabs.cc/tabs/p/project_wyze/nothings_what_it_seems_btab.html ]
Chorus                                        x3 
G-----------------------------------------------
D-----------------------------------------------
A-----------------------------------------------
E-0^-0-0-0-0-3^-3-3-3-3-2^-2-2-2-2-3-3-3-*-3-3-3
B-----------------------------------------------

First verse

Chorus

Verse(Type 2)                                 x3            
G-----------------------------------------   
D-------------------------------------3-2-
A-----------------------------------------
E-0-0-0-0-0-1-1-1-1-1-3-3-3-3-3-3-3-3-----
B-----------------------------------------

Chorus

Well that's it. Hope you like it
Just a note ^=let note resonate
            *=rest
E-mail me with any corrections yakalien@hotmail.com
Comments