Project 86 - The Spy Hunter Chords & Tabs

 

The Spy Hunter Chords & Tabs

Project 86 Chords & Tabs

Version: 1 Type: Tab 0 ratings
1 star 2 stars 3 stars 4 stars 5 stars
comments

The Spy Hunter Tab

The Spy Hunter by Project 86 guitar tab
Tabbed by Andy Reierson (andy@reierson.net)

This is a great song!! Make sure to check the comments/corrections in case
I see an error after I submit the tab. I also put out a bass tab for this,
but a little bit of it is wrong so hopefully I can get the correct one in
pretty soon. Have fun!!

Intro
e|----------------------------|
B|----------------------------|
G|--14-14-14--10--9-9--10-10--|
D|--X--X--X---X---X-X--X--X---|   x 2
A|--12-12-12--8---7-7--8--8---|
D|----------------------------|

e|--------------------0---------|
B|--------------------0---------|
G|--------------------0---------|
D|--0----6-6-6-6-0-----------0--|   x 1
A|--0----6-6-6-6-0-----------0--|
D|--0----6-6-6-6-0-----------0--|

Verse
e|------------------------------|
B|------------------------------|
G|------------------------------|
D|--0-0-6-0-0-0-0-0--3-0-2-0-3--|   x 10
A|--0-0-6-0-0-5-0-0--3-0-2-0-3--|
D|--0-0-6-0-0-5-0-0--3-0-2-0-3--|


Bridge 1
e|-----------------------------------------------------|
B|-----------------------------------------------------|
G|-------------------------------13-13-13-13-13-13-13--|
D|--0--2-2--3-3--6-6-6-5--5--5--X--X--X--X--X--X--X---|   x 2
A|--0--2-2--3-3--6-6-6--5--5--5--11-11-11-11-11-11-11--|
D|--0--2-2--3-3--6-6-6--5--5--5------------------------|

e|------------------------|
B|------------------------|
G|------------------------|
D|--14-14-14-14-14-14-14--|   x 1
A|--X--X--X--X--X--X--X---|
D|--12-12-12-12-12-12-12--|
[ Tab from: http://www.guitartabs.cc/tabs/p/project_86/the_spy_hunter_tab.html ]
Chorus
e|-----------------------------------|
B|---------10-----10-----10---6-6-6--|
G|------------7-7----7-7----7-7-7-7--|
D|--0-0-0----------------------------|   x 8
A|--0-0-0----------------------------|
D|--0-0-0----------------------------|

Bridge 2
e|-------0-----------------------------------------|
B|-------0-----------------------------------------|
G|-------0-----------------------------------------|
D|--0----------------------------------------------|   x 1
A|--0----------------------------------------------|
D|--0----------------------------------------------|
              (scrape your pick down the strings leading into verse)

Bridge 3
e|------------------------------------------|
B|------------------------------------------|
G|------7h8-----7h8-----7h8-----------------|
D|--0-------6-------3-------6-6-6--8-8-8-8--|   x 4
A|--0-------6-------3-------6-6-6--8-8-8-8--|
D|--0-------6-------3-------6-6-6--8-8-8-8--|

e|---------------------------------------------------|
B|---------------------------------------------------|
G|--13-13-13-13-13-13-13-13-13-13-13-13-13-13-13-13--|
D|--X--X--X--X--X--X--X--X--X--X--X--X--X--X--X--X---|   x 1
A|--11-11-11-11-11-11-11-11-11-11-11-11-11-11-11-11--|
D|---------------------------------------------------|

Ending
e|---------------------------------------------|
B|---------10-----10-----10---6-6-6------------|
G|------------7-7----7-7----7-7-7-7------------|
D|--0-0-0---------------------------0----------|
A|--0-0-0---------------------------0----------|
D|--0-0-0---------------------------0----------|
                                    (let ring)


Order:
Intro
Verse
Bridge 1
Chorus
Bridge 2
Verse
Bridge 1
Chorus
Bridge 3
Bridge 1
Chorus
Ending
Comments