Project 86 - The Spy Hunter Chords & Tabs

 

The Spy Hunter Chords & Tabs

Project 86 Chords & Tabs

Version: 1 Type: Bass Tab 0 ratings
1 star 2 stars 3 stars 4 stars 5 stars
comments

The Spy Hunter Bass Tab

   
The Spy Hunter by Project 86 bass tab
Tabbed by Andy Reierson (andy@reierson.net)

Note: I didn't really take the time to represent rhythm in this tab so you'll
just have to listen to the song to figure it out. It shouldn't be to hard.

Drop D Tuning (DADG)

Intro
G------|-------------------------------------|
D------|-------------------------------------|  x4 (repeat only the part after
A------|-------------------------------------|       the bar)
D-12\0-|-3-3-3-3-0-0-6-0-0-6-0-0-3-0-2-0-3---|

Verse (One last disguise...)
G----------------------------|
D----------------------------|  x10
A----------------------------|
D-0-0-6-0-0-6-0-0-3-0-2-0-3--|

Bridge 1 (So hide yourself...)
G-------------------------------------|
D-------------------------------------|  x2
A-------------------------------------|
D-0-2-2-3-3-6-6-6-5-5-5-5-5-5-6-6-3-3-|
[ Tab from: http://www.guitartabs.cc/tabs/p/project_86/the_spy_hunter_btab.html ]
G---------------|
D---------------|
A---------------|
D-0-3-0-6-0-2h3-|

Chorus (We caught you plotting murder...)
G-----------------------------------------------|
D-----------------------------------------------|  x4
A-----------------------------------------------|
D-0-0--0-0--0-0--0-0--0/6\0--0-0--0-0--0-0--0-0-|

Bridge 2
G-------------------------------|
D-------------------------------|  x4
A-------------------------------|
D-0-0-6-0-0-6-0-0-3-0-2-0-3-----|

Bridge 3 (I do not need any more truthless heroes...)
G---------------------|
D---------------------|  x4
A---------------------|
D-0--6--3--6-6--8-8-8-|

Ending (I need truth...)
G-------------------------|
D-------------------------|
A-------------------------|
D-0-0-0--------0----------| (let ring)

Key
/ - Slide
h - Hammer-on

Order
Intro
Verse
Bridge 1
Chorus
Bridge 2
Verse
Bridge 1
Chorus
Bridge 3
Bridge 1
Chorus
Ending
Comments